ISO-10303-21;
HEADER;
/* Generated by software containing ST-Developer
 * from STEP Tools, Inc. (www.steptools.com) 
 */

FILE_DESCRIPTION(
/* description */ (''),
/* implementation_level */ '2;1');

FILE_NAME(
/* name */ 
'C:\\Users\\shane\\Desktop\\CNC Broach Tools\\Tool Library\\Cam stp Mo
dels\\T6MML\\T6MML.stp',
/* time_stamp */ '2021-12-14T15:53:21-07:00',
/* author */ ('shane'),
/* organization */ (''),
/* preprocessor_version */ 'ST-DEVELOPER v18.1',
/* originating_system */ 'Autodesk Inventor 2022',
/* authorisation */ '');

FILE_SCHEMA (('AUTOMOTIVE_DESIGN { 1 0 10303 214 3 1 1 }'));
ENDSEC;

DATA;
#10=MECHANICAL_DESIGN_GEOMETRIC_PRESENTATION_REPRESENTATION('',(#13),#391);
#11=SHAPE_REPRESENTATION_RELATIONSHIP('SRR','None',#401,#12);
#12=ADVANCED_BREP_SHAPE_REPRESENTATION('',(#14),#390);
#13=STYLED_ITEM('',(#410),#14);
#14=MANIFOLD_SOLID_BREP('Solid1',#203);
#15=FACE_BOUND('',#57,.T.);
#16=TOROIDAL_SURFACE('',#233,0.265,0.015);
#17=TOROIDAL_SURFACE('',#238,0.344999999999999,0.0300000000000001);
#18=TOROIDAL_SURFACE('',#246,0.34,0.06);
#19=CYLINDRICAL_SURFACE('',#228,0.28);
#20=CYLINDRICAL_SURFACE('',#242,0.375);
#21=CIRCLE('',#227,0.28);
#22=CIRCLE('',#229,0.28);
#23=CIRCLE('',#230,0.28);
#24=CIRCLE('',#231,0.28);
#25=CIRCLE('',#232,0.28);
#26=CIRCLE('',#234,0.265);
#27=CIRCLE('',#237,0.344999999999999);
#28=CIRCLE('',#239,0.375);
#29=CIRCLE('',#240,0.375);
#30=CIRCLE('',#241,0.0300000000000001);
#31=CIRCLE('',#243,0.375);
#32=CIRCLE('',#245,0.34);
#33=CIRCLE('',#247,0.06);
#34=FACE_OUTER_BOUND('',#46,.T.);
#35=FACE_OUTER_BOUND('',#47,.T.);
#36=FACE_OUTER_BOUND('',#48,.T.);
#37=FACE_OUTER_BOUND('',#49,.T.);
#38=FACE_OUTER_BOUND('',#50,.T.);
#39=FACE_OUTER_BOUND('',#51,.T.);
#40=FACE_OUTER_BOUND('',#52,.T.);
#41=FACE_OUTER_BOUND('',#53,.T.);
#42=FACE_OUTER_BOUND('',#54,.T.);
#43=FACE_OUTER_BOUND('',#55,.T.);
#44=FACE_OUTER_BOUND('',#56,.T.);
#45=FACE_OUTER_BOUND('',#58,.T.);
#46=EDGE_LOOP('',(#130,#131,#132,#133,#134));
#47=EDGE_LOOP('',(#135,#136,#137,#138,#139));
#48=EDGE_LOOP('',(#140,#141,#142,#143));
#49=EDGE_LOOP('',(#144,#145,#146,#147));
#50=EDGE_LOOP('',(#148,#149,#150,#151,#152,#153,#154,#155,#156));
#51=EDGE_LOOP('',(#157,#158,#159,#160,#161));
#52=EDGE_LOOP('',(#162,#163,#164,#165));
#53=EDGE_LOOP('',(#166));
#54=EDGE_LOOP('',(#167,#168,#169,#170,#171));
#55=EDGE_LOOP('',(#172,#173,#174,#175,#176));
#56=EDGE_LOOP('',(#177));
#57=EDGE_LOOP('',(#178));
#58=EDGE_LOOP('',(#179,#180,#181,#182,#183));
#59=B_SPLINE_CURVE_WITH_KNOTS('',3,(#318,#319,#320,#321,#322,#323,#324,
#325,#326,#327),.UNSPECIFIED.,.F.,.F.,(4,2,2,2,4),(-0.0596944183038335,
-0.0433594273346907,-0.0280032052900189,-0.013635320771593,-2.77555756156289E-17),
 .UNSPECIFIED.);
#60=B_SPLINE_CURVE_WITH_KNOTS('',3,(#343,#344,#345,#346,#347,#348,#349,
#350,#351,#352),.UNSPECIFIED.,.F.,.F.,(4,2,2,2,4),(0.,0.013635320771593,
0.0280032052900189,0.0433594273346907,0.0596944183038335),.UNSPECIFIED.);
#61=LINE('',#316,#73);
#62=LINE('',#329,#74);
#63=LINE('',#331,#75);
#64=LINE('',#332,#76);
#65=LINE('',#336,#77);
#66=LINE('',#338,#78);
#67=LINE('',#340,#79);
#68=LINE('',#342,#80);
#69=LINE('',#354,#81);
#70=LINE('',#355,#82);
#71=LINE('',#362,#83);
#72=LINE('',#382,#84);
#73=VECTOR('',#252,0.393700787401575);
#74=VECTOR('',#253,0.393700787401575);
#75=VECTOR('',#254,0.393700787401575);
#76=VECTOR('',#255,0.393700787401575);
#77=VECTOR('',#258,0.393700787401575);
#78=VECTOR('',#259,0.393700787401575);
#79=VECTOR('',#260,0.393700787401575);
#80=VECTOR('',#261,0.393700787401575);
#81=VECTOR('',#264,0.393700787401575);
#82=VECTOR('',#265,0.393700787401575);
#83=VECTOR('',#274,0.28);
#84=VECTOR('',#303,0.375);
#85=VERTEX_POINT('',#314);
#86=VERTEX_POINT('',#315);
#87=VERTEX_POINT('',#317);
#88=VERTEX_POINT('',#328);
#89=VERTEX_POINT('',#330);
#90=VERTEX_POINT('',#334);
#91=VERTEX_POINT('',#335);
#92=VERTEX_POINT('',#337);
#93=VERTEX_POINT('',#339);
#94=VERTEX_POINT('',#341);
#95=VERTEX_POINT('',#359);
#96=VERTEX_POINT('',#361);
#97=VERTEX_POINT('',#363);
#98=VERTEX_POINT('',#371);
#99=VERTEX_POINT('',#374);
#100=VERTEX_POINT('',#375);
#101=VERTEX_POINT('',#380);
#102=VERTEX_POINT('',#384);
#103=EDGE_CURVE('',#85,#86,#61,.T.);
#104=EDGE_CURVE('',#87,#85,#59,.T.);
#105=EDGE_CURVE('',#87,#88,#62,.T.);
#106=EDGE_CURVE('',#88,#89,#63,.T.);
#107=EDGE_CURVE('',#89,#86,#64,.T.);
#108=EDGE_CURVE('',#90,#91,#65,.T.);
#109=EDGE_CURVE('',#90,#92,#66,.T.);
#110=EDGE_CURVE('',#92,#93,#67,.T.);
#111=EDGE_CURVE('',#93,#94,#68,.T.);
#112=EDGE_CURVE('',#91,#94,#60,.T.);
#113=EDGE_CURVE('',#89,#92,#69,.T.);
#114=EDGE_CURVE('',#93,#88,#70,.T.);
#115=EDGE_CURVE('',#86,#90,#21,.T.);
#116=EDGE_CURVE('',#95,#91,#22,.T.);
#117=EDGE_CURVE('',#95,#96,#71,.T.);
#118=EDGE_CURVE('',#96,#97,#23,.T.);
#119=EDGE_CURVE('',#97,#96,#24,.T.);
#120=EDGE_CURVE('',#85,#95,#25,.T.);
#121=EDGE_CURVE('',#87,#94,#26,.T.);
#122=EDGE_CURVE('',#98,#98,#27,.T.);
#123=EDGE_CURVE('',#99,#100,#28,.T.);
#124=EDGE_CURVE('',#100,#99,#29,.T.);
#125=EDGE_CURVE('',#100,#98,#30,.T.);
#126=EDGE_CURVE('',#101,#101,#31,.T.);
#127=EDGE_CURVE('',#101,#99,#72,.T.);
#128=EDGE_CURVE('',#102,#102,#32,.T.);
#129=EDGE_CURVE('',#102,#97,#33,.T.);
#130=ORIENTED_EDGE('',*,*,#103,.F.);
#131=ORIENTED_EDGE('',*,*,#104,.F.);
#132=ORIENTED_EDGE('',*,*,#105,.T.);
#133=ORIENTED_EDGE('',*,*,#106,.T.);
#134=ORIENTED_EDGE('',*,*,#107,.T.);
#135=ORIENTED_EDGE('',*,*,#108,.F.);
#136=ORIENTED_EDGE('',*,*,#109,.T.);
#137=ORIENTED_EDGE('',*,*,#110,.T.);
#138=ORIENTED_EDGE('',*,*,#111,.T.);
#139=ORIENTED_EDGE('',*,*,#112,.F.);
#140=ORIENTED_EDGE('',*,*,#113,.F.);
#141=ORIENTED_EDGE('',*,*,#106,.F.);
#142=ORIENTED_EDGE('',*,*,#114,.F.);
#143=ORIENTED_EDGE('',*,*,#110,.F.);
#144=ORIENTED_EDGE('',*,*,#115,.F.);
#145=ORIENTED_EDGE('',*,*,#107,.F.);
#146=ORIENTED_EDGE('',*,*,#113,.T.);
#147=ORIENTED_EDGE('',*,*,#109,.F.);
#148=ORIENTED_EDGE('',*,*,#103,.T.);
#149=ORIENTED_EDGE('',*,*,#115,.T.);
#150=ORIENTED_EDGE('',*,*,#108,.T.);
#151=ORIENTED_EDGE('',*,*,#116,.F.);
#152=ORIENTED_EDGE('',*,*,#117,.T.);
#153=ORIENTED_EDGE('',*,*,#118,.T.);
#154=ORIENTED_EDGE('',*,*,#119,.T.);
#155=ORIENTED_EDGE('',*,*,#117,.F.);
#156=ORIENTED_EDGE('',*,*,#120,.F.);
#157=ORIENTED_EDGE('',*,*,#104,.T.);
#158=ORIENTED_EDGE('',*,*,#120,.T.);
#159=ORIENTED_EDGE('',*,*,#116,.T.);
#160=ORIENTED_EDGE('',*,*,#112,.T.);
#161=ORIENTED_EDGE('',*,*,#121,.F.);
#162=ORIENTED_EDGE('',*,*,#121,.T.);
#163=ORIENTED_EDGE('',*,*,#111,.F.);
#164=ORIENTED_EDGE('',*,*,#114,.T.);
#165=ORIENTED_EDGE('',*,*,#105,.F.);
#166=ORIENTED_EDGE('',*,*,#122,.F.);
#167=ORIENTED_EDGE('',*,*,#123,.F.);
#168=ORIENTED_EDGE('',*,*,#124,.F.);
#169=ORIENTED_EDGE('',*,*,#125,.T.);
#170=ORIENTED_EDGE('',*,*,#122,.T.);
#171=ORIENTED_EDGE('',*,*,#125,.F.);
#172=ORIENTED_EDGE('',*,*,#126,.F.);
#173=ORIENTED_EDGE('',*,*,#127,.T.);
#174=ORIENTED_EDGE('',*,*,#123,.T.);
#175=ORIENTED_EDGE('',*,*,#124,.T.);
#176=ORIENTED_EDGE('',*,*,#127,.F.);
#177=ORIENTED_EDGE('',*,*,#126,.T.);
#178=ORIENTED_EDGE('',*,*,#128,.F.);
#179=ORIENTED_EDGE('',*,*,#128,.T.);
#180=ORIENTED_EDGE('',*,*,#129,.T.);
#181=ORIENTED_EDGE('',*,*,#118,.F.);
#182=ORIENTED_EDGE('',*,*,#119,.F.);
#183=ORIENTED_EDGE('',*,*,#129,.F.);
#184=PLANE('',#223);
#185=PLANE('',#224);
#186=PLANE('',#225);
#187=PLANE('',#226);
#188=PLANE('',#235);
#189=PLANE('',#236);
#190=PLANE('',#244);
#191=ADVANCED_FACE('',(#34),#184,.T.);
#192=ADVANCED_FACE('',(#35),#185,.T.);
#193=ADVANCED_FACE('',(#36),#186,.T.);
#194=ADVANCED_FACE('',(#37),#187,.T.);
#195=ADVANCED_FACE('',(#38),#19,.T.);
#196=ADVANCED_FACE('',(#39),#16,.T.);
#197=ADVANCED_FACE('',(#40),#188,.T.);
#198=ADVANCED_FACE('',(#41),#189,.T.);
#199=ADVANCED_FACE('',(#42),#17,.T.);
#200=ADVANCED_FACE('',(#43),#20,.T.);
#201=ADVANCED_FACE('',(#44,#15),#190,.T.);
#202=ADVANCED_FACE('',(#45),#18,.F.);
#203=CLOSED_SHELL('',(#191,#192,#193,#194,#195,#196,#197,#198,#199,#200,
#201,#202));
#204=DERIVED_UNIT_ELEMENT(#206,1.);
#205=DERIVED_UNIT_ELEMENT(#395,-3.);
#206=(
MASS_UNIT()
NAMED_UNIT(*)
SI_UNIT($,.GRAM.)
);
#207=DERIVED_UNIT((#204,#205));
#208=MEASURE_REPRESENTATION_ITEM('density measure',
POSITIVE_RATIO_MEASURE(1.),#207);
#209=PROPERTY_DEFINITION_REPRESENTATION(#214,#211);
#210=PROPERTY_DEFINITION_REPRESENTATION(#215,#212);
#211=REPRESENTATION('material name',(#213),#390);
#212=REPRESENTATION('density',(#208),#390);
#213=DESCRIPTIVE_REPRESENTATION_ITEM('Generic','Generic');
#214=PROPERTY_DEFINITION('material property','material name',#403);
#215=PROPERTY_DEFINITION('material property','density of part',#403);
#216=DATE_TIME_ROLE('creation_date');
#217=APPLIED_DATE_AND_TIME_ASSIGNMENT(#218,#216,(#403));
#218=DATE_AND_TIME(#219,#220);
#219=CALENDAR_DATE(2021,14,12);
#220=LOCAL_TIME(0,0,0.,#221);
#221=COORDINATED_UNIVERSAL_TIME_OFFSET(0,0,.BEHIND.);
#222=AXIS2_PLACEMENT_3D('placement',#312,#248,#249);
#223=AXIS2_PLACEMENT_3D('',#313,#250,#251);
#224=AXIS2_PLACEMENT_3D('',#333,#256,#257);
#225=AXIS2_PLACEMENT_3D('',#353,#262,#263);
#226=AXIS2_PLACEMENT_3D('',#356,#266,#267);
#227=AXIS2_PLACEMENT_3D('',#357,#268,#269);
#228=AXIS2_PLACEMENT_3D('',#358,#270,#271);
#229=AXIS2_PLACEMENT_3D('',#360,#272,#273);
#230=AXIS2_PLACEMENT_3D('',#364,#275,#276);
#231=AXIS2_PLACEMENT_3D('',#365,#277,#278);
#232=AXIS2_PLACEMENT_3D('',#366,#279,#280);
#233=AXIS2_PLACEMENT_3D('',#367,#281,#282);
#234=AXIS2_PLACEMENT_3D('',#368,#283,#284);
#235=AXIS2_PLACEMENT_3D('',#369,#285,#286);
#236=AXIS2_PLACEMENT_3D('',#370,#287,#288);
#237=AXIS2_PLACEMENT_3D('',#372,#289,#290);
#238=AXIS2_PLACEMENT_3D('',#373,#291,#292);
#239=AXIS2_PLACEMENT_3D('',#376,#293,#294);
#240=AXIS2_PLACEMENT_3D('',#377,#295,#296);
#241=AXIS2_PLACEMENT_3D('',#378,#297,#298);
#242=AXIS2_PLACEMENT_3D('',#379,#299,#300);
#243=AXIS2_PLACEMENT_3D('',#381,#301,#302);
#244=AXIS2_PLACEMENT_3D('',#383,#304,#305);
#245=AXIS2_PLACEMENT_3D('',#385,#306,#307);
#246=AXIS2_PLACEMENT_3D('',#386,#308,#309);
#247=AXIS2_PLACEMENT_3D('',#387,#310,#311);
#248=DIRECTION('axis',(0.,0.,1.));
#249=DIRECTION('refdir',(1.,0.,0.));
#250=DIRECTION('center_axis',(0.,1.,0.));
#251=DIRECTION('ref_axis',(0.,0.,1.));
#252=DIRECTION('',(-1.,-1.22464679914735E-16,0.));
#253=DIRECTION('',(0.,0.,-1.));
#254=DIRECTION('',(-0.99026806874157,0.,0.139173100960066));
#255=DIRECTION('',(2.03300315807573E-16,0.,1.));
#256=DIRECTION('center_axis',(0.,-1.,0.));
#257=DIRECTION('ref_axis',(0.,0.,-1.));
#258=DIRECTION('',(1.,1.22464679914735E-16,0.));
#259=DIRECTION('',(-2.03300315807573E-16,0.,-1.));
#260=DIRECTION('',(0.99026806874157,0.,-0.139173100960066));
#261=DIRECTION('',(0.,0.,1.));
#262=DIRECTION('center_axis',(-0.139173100960066,0.,-0.99026806874157));
#263=DIRECTION('ref_axis',(-0.99026806874157,0.,0.139173100960066));
#264=DIRECTION('',(0.,-1.,0.));
#265=DIRECTION('',(0.,1.,0.));
#266=DIRECTION('center_axis',(-1.,0.,2.03300315807573E-16));
#267=DIRECTION('ref_axis',(2.03300315807573E-16,0.,1.));
#268=DIRECTION('center_axis',(-1.,0.,2.03300315807573E-16));
#269=DIRECTION('ref_axis',(0.,1.,0.));
#270=DIRECTION('center_axis',(1.,1.22464679914735E-16,0.));
#271=DIRECTION('ref_axis',(0.,1.,0.));
#272=DIRECTION('center_axis',(1.,1.22464679914735E-16,0.));
#273=DIRECTION('ref_axis',(0.,0.,-1.));
#274=DIRECTION('',(-1.,-1.22464679914735E-16,0.));
#275=DIRECTION('center_axis',(1.,1.22464679914735E-16,0.));
#276=DIRECTION('ref_axis',(0.,0.,-1.));
#277=DIRECTION('center_axis',(1.,1.22464679914735E-16,0.));
#278=DIRECTION('ref_axis',(0.,0.,-1.));
#279=DIRECTION('center_axis',(1.,1.22464679914735E-16,0.));
#280=DIRECTION('ref_axis',(0.,0.,-1.));
#281=DIRECTION('center_axis',(1.,1.22464679914735E-16,0.));
#282=DIRECTION('ref_axis',(0.,1.22464679914735E-16,1.));
#283=DIRECTION('center_axis',(1.,1.22464679914735E-16,0.));
#284=DIRECTION('ref_axis',(0.,0.,-1.));
#285=DIRECTION('center_axis',(1.,1.22464679914735E-16,0.));
#286=DIRECTION('ref_axis',(0.,0.,-1.));
#287=DIRECTION('center_axis',(-1.,-1.22464679914735E-16,0.));
#288=DIRECTION('ref_axis',(0.,0.,1.));
#289=DIRECTION('center_axis',(1.,1.22464679914735E-16,0.));
#290=DIRECTION('ref_axis',(0.,0.,-1.));
#291=DIRECTION('center_axis',(1.,1.22464679914735E-16,0.));
#292=DIRECTION('ref_axis',(0.,0.,-1.));
#293=DIRECTION('center_axis',(1.,1.22464679914735E-16,0.));
#294=DIRECTION('ref_axis',(0.,0.,-1.));
#295=DIRECTION('center_axis',(1.,1.22464679914735E-16,0.));
#296=DIRECTION('ref_axis',(0.,0.,-1.));
#297=DIRECTION('center_axis',(1.22464679914735E-16,-1.,-1.22464679914735E-16));
#298=DIRECTION('ref_axis',(0.,-1.22464679914735E-16,1.));
#299=DIRECTION('center_axis',(1.,1.22464679914735E-16,0.));
#300=DIRECTION('ref_axis',(0.,1.,0.));
#301=DIRECTION('center_axis',(1.,1.22464679914735E-16,0.));
#302=DIRECTION('ref_axis',(0.,0.,-1.));
#303=DIRECTION('',(-1.,-1.22464679914735E-16,0.));
#304=DIRECTION('center_axis',(1.,1.22464679914735E-16,0.));
#305=DIRECTION('ref_axis',(0.,0.,-1.));
#306=DIRECTION('center_axis',(1.,1.22464679914735E-16,0.));
#307=DIRECTION('ref_axis',(0.,0.,-1.));
#308=DIRECTION('center_axis',(1.,1.22464679914735E-16,0.));
#309=DIRECTION('ref_axis',(0.,0.,-1.));
#310=DIRECTION('center_axis',(1.22464679914735E-16,-1.,-1.22464679914735E-16));
#311=DIRECTION('ref_axis',(0.,-1.22464679914735E-16,1.));
#312=CARTESIAN_POINT('',(0.,0.,0.));
#313=CARTESIAN_POINT('Origin',(-0.375,0.11975,-0.162297186986603));
#314=CARTESIAN_POINT('',(-0.015,0.11975,-0.253100646976652));
#315=CARTESIAN_POINT('',(-0.75,0.11975,-0.253100646976652));
#316=CARTESIAN_POINT('',(-1.4775,0.11975,-0.253100646976652));
#317=CARTESIAN_POINT('',(0.,0.11975,-0.236399952411163));
#318=CARTESIAN_POINT('Ctrl Pts',(-2.18547839493141E-17,0.11975,-0.236399952411163));
#319=CARTESIAN_POINT('Ctrl Pts',(-1.6451754771522E-17,0.11975,-0.238543652013413));
#320=CARTESIAN_POINT('Ctrl Pts',(-0.000461413263257108,0.11975,-0.241074371851411));
#321=CARTESIAN_POINT('Ctrl Pts',(-0.0019694920986518,0.11975,-0.244950268989629));
#322=CARTESIAN_POINT('Ctrl Pts',(-0.0032392209332517,0.11975,-0.247008417808105));
#323=CARTESIAN_POINT('Ctrl Pts',(-0.00591034788603693,0.11975,-0.249851186222335));
#324=CARTESIAN_POINT('Ctrl Pts',(-0.00774571200226855,0.11975,-0.251174464053089));
#325=CARTESIAN_POINT('Ctrl Pts',(-0.01111080080883,0.11975,-0.252651460348937));
#326=CARTESIAN_POINT('Ctrl Pts',(-0.0132105878252503,0.11975,-0.253100646976652));
#327=CARTESIAN_POINT('Ctrl Pts',(-0.015,0.11975,-0.253100646976652));
#328=CARTESIAN_POINT('',(0.,0.11975,-0.43));
#329=CARTESIAN_POINT('',(0.,0.11975,0.));
#330=CARTESIAN_POINT('',(-0.75,0.11975,-0.324594373973206));
#331=CARTESIAN_POINT('',(0.,0.11975,-0.43));
#332=CARTESIAN_POINT('',(-0.75,0.11975,-0.324594373973206));
#333=CARTESIAN_POINT('Origin',(-0.375,-0.11975,-0.162297186986603));
#334=CARTESIAN_POINT('',(-0.75,-0.11975,-0.253100646976652));
#335=CARTESIAN_POINT('',(-0.015,-0.11975,-0.253100646976652));
#336=CARTESIAN_POINT('',(-1.4775,-0.11975,-0.253100646976652));
#337=CARTESIAN_POINT('',(-0.75,-0.11975,-0.324594373973206));
#338=CARTESIAN_POINT('',(-0.75,-0.11975,-0.324594373973206));
#339=CARTESIAN_POINT('',(0.,-0.11975,-0.43));
#340=CARTESIAN_POINT('',(0.,-0.11975,-0.43));
#341=CARTESIAN_POINT('',(0.,-0.11975,-0.236399952411163));
#342=CARTESIAN_POINT('',(0.,-0.11975,0.));
#343=CARTESIAN_POINT('Ctrl Pts',(-0.015,-0.11975,-0.253100646976652));
#344=CARTESIAN_POINT('Ctrl Pts',(-0.0132105878252503,-0.11975,-0.253100646976652));
#345=CARTESIAN_POINT('Ctrl Pts',(-0.01111080080883,-0.11975,-0.252651460348937));
#346=CARTESIAN_POINT('Ctrl Pts',(-0.00774571200226853,-0.11975,-0.251174464053089));
#347=CARTESIAN_POINT('Ctrl Pts',(-0.00591034788603692,-0.11975,-0.249851186222335));
#348=CARTESIAN_POINT('Ctrl Pts',(-0.00323922093325169,-0.11975,-0.247008417808105));
#349=CARTESIAN_POINT('Ctrl Pts',(-0.00196949209865178,-0.11975,-0.244950268989629));
#350=CARTESIAN_POINT('Ctrl Pts',(-0.000461413263257093,-0.11975,-0.241074371851411));
#351=CARTESIAN_POINT('Ctrl Pts',(5.34659884561557E-18,-0.11975,-0.238543652013413));
#352=CARTESIAN_POINT('Ctrl Pts',(5.46369598732853E-18,-0.11975,-0.236399952411163));
#353=CARTESIAN_POINT('Origin',(0.,0.,-0.43));
#354=CARTESIAN_POINT('',(-0.75,0.,-0.324594373973206));
#355=CARTESIAN_POINT('',(0.,0.,-0.43));
#356=CARTESIAN_POINT('Origin',(-0.75,0.,-0.324594373973206));
#357=CARTESIAN_POINT('Origin',(-0.75,-9.18485099360515E-17,0.));
#358=CARTESIAN_POINT('Origin',(-1.4775,-1.80941564574021E-16,0.));
#359=CARTESIAN_POINT('',(-0.015,-0.28,-3.42901103761259E-17));
#360=CARTESIAN_POINT('Origin',(-0.015,-1.83697019872103E-18,0.));
#361=CARTESIAN_POINT('',(-2.94,-0.28,-3.42901103761259E-17));
#362=CARTESIAN_POINT('',(-1.4775,-0.28,-3.42901103761259E-17));
#363=CARTESIAN_POINT('',(-2.94,-3.94336269325448E-16,0.28));
#364=CARTESIAN_POINT('Origin',(-2.94,-3.60046158949322E-16,0.));
#365=CARTESIAN_POINT('Origin',(-2.94,-3.60046158949322E-16,0.));
#366=CARTESIAN_POINT('Origin',(-0.015,-1.83697019872103E-18,0.));
#367=CARTESIAN_POINT('Origin',(-0.015,-1.83697019872103E-18,0.));
#368=CARTESIAN_POINT('Origin',(0.,0.,0.));
#369=CARTESIAN_POINT('Origin',(0.,0.,0.));
#370=CARTESIAN_POINT('Origin',(-5.,0.344999999999999,0.));
#371=CARTESIAN_POINT('',(-5.,-6.5457371414426E-16,0.344999999999999));
#372=CARTESIAN_POINT('Origin',(-5.,-6.12323399573677E-16,0.));
#373=CARTESIAN_POINT('Origin',(-4.97,-6.08649459176235E-16,0.));
#374=CARTESIAN_POINT('',(-4.97,-0.375,-4.59242549680257E-17));
#375=CARTESIAN_POINT('',(-4.97,-6.5457371414426E-16,0.375));
#376=CARTESIAN_POINT('Origin',(-4.97,-6.08649459176235E-16,0.));
#377=CARTESIAN_POINT('Origin',(-4.97,-6.08649459176235E-16,0.));
#378=CARTESIAN_POINT('Origin',(-4.97,-6.50899773746818E-16,0.344999999999999));
#379=CARTESIAN_POINT('Origin',(-3.985,-4.8802174946022E-16,0.));
#380=CARTESIAN_POINT('',(-3.,-0.375,-4.59242549680257E-17));
#381=CARTESIAN_POINT('Origin',(-3.,-3.67394039744206E-16,0.));
#382=CARTESIAN_POINT('',(-3.985,-0.375,-4.59242549680257E-17));
#383=CARTESIAN_POINT('Origin',(-3.,0.34,0.));
#384=CARTESIAN_POINT('',(-3.,-4.09032030915216E-16,0.34));
#385=CARTESIAN_POINT('Origin',(-3.,-3.67394039744206E-16,0.));
#386=CARTESIAN_POINT('Origin',(-2.94,-3.60046158949322E-16,0.));
#387=CARTESIAN_POINT('Origin',(-2.94,-4.01684150120332E-16,0.34));
#388=UNCERTAINTY_MEASURE_WITH_UNIT(LENGTH_MEASURE(0.000393700787401575),
#393,'DISTANCE_ACCURACY_VALUE',
'Maximum model space distance between geometric entities at asserted c
onnectivities');
#389=UNCERTAINTY_MEASURE_WITH_UNIT(LENGTH_MEASURE(0.000393700787401575),
#393,'DISTANCE_ACCURACY_VALUE',
'Maximum model space distance between geometric entities at asserted c
onnectivities');
#390=(
GEOMETRIC_REPRESENTATION_CONTEXT(3)
GLOBAL_UNCERTAINTY_ASSIGNED_CONTEXT((#388))
GLOBAL_UNIT_ASSIGNED_CONTEXT((#393,#397,#398))
REPRESENTATION_CONTEXT('','3D')
);
#391=(
GEOMETRIC_REPRESENTATION_CONTEXT(3)
GLOBAL_UNCERTAINTY_ASSIGNED_CONTEXT((#389))
GLOBAL_UNIT_ASSIGNED_CONTEXT((#393,#397,#398))
REPRESENTATION_CONTEXT('','3D')
);
#392=DIMENSIONAL_EXPONENTS(1.,0.,0.,0.,0.,0.,0.);
#393=(
CONVERSION_BASED_UNIT('inch',#396)
LENGTH_UNIT()
NAMED_UNIT(#392)
);
#394=(
LENGTH_UNIT()
NAMED_UNIT(*)
SI_UNIT(.MILLI.,.METRE.)
);
#395=(
LENGTH_UNIT()
NAMED_UNIT(*)
SI_UNIT(.CENTI.,.METRE.)
);
#396=LENGTH_MEASURE_WITH_UNIT(LENGTH_MEASURE(25.4),#394);
#397=(
NAMED_UNIT(*)
PLANE_ANGLE_UNIT()
SI_UNIT($,.RADIAN.)
);
#398=(
NAMED_UNIT(*)
SI_UNIT($,.STERADIAN.)
SOLID_ANGLE_UNIT()
);
#399=SHAPE_DEFINITION_REPRESENTATION(#400,#401);
#400=PRODUCT_DEFINITION_SHAPE('',$,#403);
#401=SHAPE_REPRESENTATION('',(#222),#390);
#402=PRODUCT_DEFINITION_CONTEXT('part definition',#407,'design');
#403=PRODUCT_DEFINITION('T6MML','T6MML',#404,#402);
#404=PRODUCT_DEFINITION_FORMATION('',$,#409);
#405=PRODUCT_RELATED_PRODUCT_CATEGORY('T6MML','T6MML',(#409));
#406=APPLICATION_PROTOCOL_DEFINITION('international standard',
'automotive_design',2009,#407);
#407=APPLICATION_CONTEXT(
'Core Data for Automotive Mechanical Design Process');
#408=PRODUCT_CONTEXT('part definition',#407,'mechanical');
#409=PRODUCT('T6MML','T6MML',$,(#408));
#410=PRESENTATION_STYLE_ASSIGNMENT((#411));
#411=SURFACE_STYLE_USAGE(.BOTH.,#414);
#412=SURFACE_STYLE_RENDERING_WITH_PROPERTIES($,#418,(#413));
#413=SURFACE_STYLE_TRANSPARENT(0.);
#414=SURFACE_SIDE_STYLE('',(#415,#412));
#415=SURFACE_STYLE_FILL_AREA(#416);
#416=FILL_AREA_STYLE('',(#417));
#417=FILL_AREA_STYLE_COLOUR('',#418);
#418=COLOUR_RGB('',0.749019607843137,0.749019607843137,0.749019607843137);
ENDSEC;
END-ISO-10303-21;
