ISO-10303-21;
HEADER;
/* Generated by software containing ST-Developer
 * from STEP Tools, Inc. (www.steptools.com) 
 */

FILE_DESCRIPTION(
/* description */ (''),
/* implementation_level */ '2;1');

FILE_NAME(
/* name */ 
'C:\\Users\\shane\\Desktop\\CNC Broach Tools\\Tool Library\\Cam stp Mo
dels\\T58L\\T58L.stp',
/* time_stamp */ '2021-12-14T15:54:42-07:00',
/* author */ ('shane'),
/* organization */ (''),
/* preprocessor_version */ 'ST-DEVELOPER v18.1',
/* originating_system */ 'Autodesk Inventor 2022',
/* authorisation */ '');

FILE_SCHEMA (('AUTOMOTIVE_DESIGN { 1 0 10303 214 3 1 1 }'));
ENDSEC;

DATA;
#10=MECHANICAL_DESIGN_GEOMETRIC_PRESENTATION_REPRESENTATION('',(#13),#310);
#11=SHAPE_REPRESENTATION_RELATIONSHIP('SRR','None',#320,#12);
#12=ADVANCED_BREP_SHAPE_REPRESENTATION('',(#14),#309);
#13=STYLED_ITEM('',(#329),#14);
#14=MANIFOLD_SOLID_BREP('Solid1',#160);
#15=TOROIDAL_SURFACE('',#190,0.61,0.015);
#16=TOROIDAL_SURFACE('',#195,0.595,0.0300000000000001);
#17=CYLINDRICAL_SURFACE('',#185,0.625);
#18=CIRCLE('',#183,0.625);
#19=CIRCLE('',#186,0.625);
#20=CIRCLE('',#187,0.625);
#21=CIRCLE('',#188,0.625);
#22=CIRCLE('',#189,0.625);
#23=CIRCLE('',#191,0.61);
#24=CIRCLE('',#194,0.595);
#25=CIRCLE('',#196,0.0300000000000001);
#26=FACE_OUTER_BOUND('',#35,.T.);
#27=FACE_OUTER_BOUND('',#36,.T.);
#28=FACE_OUTER_BOUND('',#37,.T.);
#29=FACE_OUTER_BOUND('',#38,.T.);
#30=FACE_OUTER_BOUND('',#39,.T.);
#31=FACE_OUTER_BOUND('',#40,.T.);
#32=FACE_OUTER_BOUND('',#41,.T.);
#33=FACE_OUTER_BOUND('',#42,.T.);
#34=FACE_OUTER_BOUND('',#43,.T.);
#35=EDGE_LOOP('',(#103,#104,#105,#106,#107));
#36=EDGE_LOOP('',(#108,#109,#110,#111));
#37=EDGE_LOOP('',(#112,#113,#114,#115));
#38=EDGE_LOOP('',(#116,#117,#118,#119,#120));
#39=EDGE_LOOP('',(#121,#122,#123,#124,#125,#126,#127,#128,#129));
#40=EDGE_LOOP('',(#130,#131,#132,#133,#134));
#41=EDGE_LOOP('',(#135,#136,#137,#138));
#42=EDGE_LOOP('',(#139));
#43=EDGE_LOOP('',(#140,#141,#142,#143,#144));
#44=LINE('',#259,#55);
#45=LINE('',#261,#56);
#46=LINE('',#263,#57);
#47=LINE('',#264,#58);
#48=LINE('',#267,#59);
#49=LINE('',#269,#60);
#50=LINE('',#270,#61);
#51=LINE('',#274,#62);
#52=LINE('',#288,#63);
#53=LINE('',#289,#64);
#54=LINE('',#294,#65);
#55=VECTOR('',#201,0.393700787401575);
#56=VECTOR('',#202,0.393700787401575);
#57=VECTOR('',#203,0.393700787401575);
#58=VECTOR('',#204,0.393700787401575);
#59=VECTOR('',#207,0.393700787401575);
#60=VECTOR('',#208,0.393700787401575);
#61=VECTOR('',#209,0.393700787401575);
#62=VECTOR('',#214,0.393700787401575);
#63=VECTOR('',#217,0.393700787401575);
#64=VECTOR('',#218,0.393700787401575);
#65=VECTOR('',#223,0.625);
#66=B_SPLINE_CURVE_WITH_KNOTS('',3,(#248,#249,#250,#251,#252,#253,#254,
#255,#256,#257),.UNSPECIFIED.,.F.,.F.,(4,2,2,2,4),(0.,0.0134449895020797,
0.0279461640292551,0.0438489974461576,0.0610710203293178),.UNSPECIFIED.);
#67=B_SPLINE_CURVE_WITH_KNOTS('',3,(#278,#279,#280,#281,#282,#283,#284,
#285,#286,#287),.UNSPECIFIED.,.F.,.F.,(4,2,2,2,4),(-0.0610710203293179,
-0.0438489974461577,-0.027946164029255,-0.0134449895020798,0.),
 .UNSPECIFIED.);
#68=VERTEX_POINT('',#246);
#69=VERTEX_POINT('',#247);
#70=VERTEX_POINT('',#258);
#71=VERTEX_POINT('',#260);
#72=VERTEX_POINT('',#262);
#73=VERTEX_POINT('',#266);
#74=VERTEX_POINT('',#268);
#75=VERTEX_POINT('',#272);
#76=VERTEX_POINT('',#276);
#77=VERTEX_POINT('',#277);
#78=VERTEX_POINT('',#291);
#79=VERTEX_POINT('',#293);
#80=VERTEX_POINT('',#295);
#81=VERTEX_POINT('',#303);
#82=EDGE_CURVE('',#68,#69,#66,.T.);
#83=EDGE_CURVE('',#70,#68,#44,.T.);
#84=EDGE_CURVE('',#70,#71,#45,.T.);
#85=EDGE_CURVE('',#71,#72,#46,.T.);
#86=EDGE_CURVE('',#72,#69,#47,.T.);
#87=EDGE_CURVE('',#73,#71,#48,.T.);
#88=EDGE_CURVE('',#74,#73,#49,.T.);
#89=EDGE_CURVE('',#72,#74,#50,.T.);
#90=EDGE_CURVE('',#75,#70,#18,.T.);
#91=EDGE_CURVE('',#73,#75,#51,.T.);
#92=EDGE_CURVE('',#76,#77,#67,.T.);
#93=EDGE_CURVE('',#76,#74,#52,.T.);
#94=EDGE_CURVE('',#77,#75,#53,.T.);
#95=EDGE_CURVE('',#78,#68,#19,.T.);
#96=EDGE_CURVE('',#78,#79,#54,.T.);
#97=EDGE_CURVE('',#79,#80,#20,.T.);
#98=EDGE_CURVE('',#80,#79,#21,.T.);
#99=EDGE_CURVE('',#77,#78,#22,.T.);
#100=EDGE_CURVE('',#76,#69,#23,.T.);
#101=EDGE_CURVE('',#81,#81,#24,.T.);
#102=EDGE_CURVE('',#80,#81,#25,.T.);
#103=ORIENTED_EDGE('',*,*,#82,.F.);
#104=ORIENTED_EDGE('',*,*,#83,.F.);
#105=ORIENTED_EDGE('',*,*,#84,.T.);
#106=ORIENTED_EDGE('',*,*,#85,.T.);
#107=ORIENTED_EDGE('',*,*,#86,.T.);
#108=ORIENTED_EDGE('',*,*,#87,.F.);
#109=ORIENTED_EDGE('',*,*,#88,.F.);
#110=ORIENTED_EDGE('',*,*,#89,.F.);
#111=ORIENTED_EDGE('',*,*,#85,.F.);
#112=ORIENTED_EDGE('',*,*,#90,.F.);
#113=ORIENTED_EDGE('',*,*,#91,.F.);
#114=ORIENTED_EDGE('',*,*,#87,.T.);
#115=ORIENTED_EDGE('',*,*,#84,.F.);
#116=ORIENTED_EDGE('',*,*,#92,.F.);
#117=ORIENTED_EDGE('',*,*,#93,.T.);
#118=ORIENTED_EDGE('',*,*,#88,.T.);
#119=ORIENTED_EDGE('',*,*,#91,.T.);
#120=ORIENTED_EDGE('',*,*,#94,.F.);
#121=ORIENTED_EDGE('',*,*,#94,.T.);
#122=ORIENTED_EDGE('',*,*,#90,.T.);
#123=ORIENTED_EDGE('',*,*,#83,.T.);
#124=ORIENTED_EDGE('',*,*,#95,.F.);
#125=ORIENTED_EDGE('',*,*,#96,.T.);
#126=ORIENTED_EDGE('',*,*,#97,.T.);
#127=ORIENTED_EDGE('',*,*,#98,.T.);
#128=ORIENTED_EDGE('',*,*,#96,.F.);
#129=ORIENTED_EDGE('',*,*,#99,.F.);
#130=ORIENTED_EDGE('',*,*,#92,.T.);
#131=ORIENTED_EDGE('',*,*,#99,.T.);
#132=ORIENTED_EDGE('',*,*,#95,.T.);
#133=ORIENTED_EDGE('',*,*,#82,.T.);
#134=ORIENTED_EDGE('',*,*,#100,.F.);
#135=ORIENTED_EDGE('',*,*,#100,.T.);
#136=ORIENTED_EDGE('',*,*,#86,.F.);
#137=ORIENTED_EDGE('',*,*,#89,.T.);
#138=ORIENTED_EDGE('',*,*,#93,.F.);
#139=ORIENTED_EDGE('',*,*,#101,.F.);
#140=ORIENTED_EDGE('',*,*,#97,.F.);
#141=ORIENTED_EDGE('',*,*,#98,.F.);
#142=ORIENTED_EDGE('',*,*,#102,.T.);
#143=ORIENTED_EDGE('',*,*,#101,.T.);
#144=ORIENTED_EDGE('',*,*,#102,.F.);
#145=PLANE('',#180);
#146=PLANE('',#181);
#147=PLANE('',#182);
#148=PLANE('',#184);
#149=PLANE('',#192);
#150=PLANE('',#193);
#151=ADVANCED_FACE('',(#26),#145,.T.);
#152=ADVANCED_FACE('',(#27),#146,.T.);
#153=ADVANCED_FACE('',(#28),#147,.T.);
#154=ADVANCED_FACE('',(#29),#148,.T.);
#155=ADVANCED_FACE('',(#30),#17,.T.);
#156=ADVANCED_FACE('',(#31),#15,.T.);
#157=ADVANCED_FACE('',(#32),#149,.T.);
#158=ADVANCED_FACE('',(#33),#150,.T.);
#159=ADVANCED_FACE('',(#34),#16,.T.);
#160=CLOSED_SHELL('',(#151,#152,#153,#154,#155,#156,#157,#158,#159));
#161=DERIVED_UNIT_ELEMENT(#163,1.);
#162=DERIVED_UNIT_ELEMENT(#314,-3.);
#163=(
MASS_UNIT()
NAMED_UNIT(*)
SI_UNIT($,.GRAM.)
);
#164=DERIVED_UNIT((#161,#162));
#165=MEASURE_REPRESENTATION_ITEM('density measure',
POSITIVE_RATIO_MEASURE(1.),#164);
#166=PROPERTY_DEFINITION_REPRESENTATION(#171,#168);
#167=PROPERTY_DEFINITION_REPRESENTATION(#172,#169);
#168=REPRESENTATION('material name',(#170),#309);
#169=REPRESENTATION('density',(#165),#309);
#170=DESCRIPTIVE_REPRESENTATION_ITEM('Generic','Generic');
#171=PROPERTY_DEFINITION('material property','material name',#322);
#172=PROPERTY_DEFINITION('material property','density of part',#322);
#173=DATE_TIME_ROLE('creation_date');
#174=APPLIED_DATE_AND_TIME_ASSIGNMENT(#175,#173,(#322));
#175=DATE_AND_TIME(#176,#177);
#176=CALENDAR_DATE(2021,14,12);
#177=LOCAL_TIME(0,0,0.,#178);
#178=COORDINATED_UNIVERSAL_TIME_OFFSET(0,0,.BEHIND.);
#179=AXIS2_PLACEMENT_3D('placement',#244,#197,#198);
#180=AXIS2_PLACEMENT_3D('',#245,#199,#200);
#181=AXIS2_PLACEMENT_3D('',#265,#205,#206);
#182=AXIS2_PLACEMENT_3D('',#271,#210,#211);
#183=AXIS2_PLACEMENT_3D('',#273,#212,#213);
#184=AXIS2_PLACEMENT_3D('',#275,#215,#216);
#185=AXIS2_PLACEMENT_3D('',#290,#219,#220);
#186=AXIS2_PLACEMENT_3D('',#292,#221,#222);
#187=AXIS2_PLACEMENT_3D('',#296,#224,#225);
#188=AXIS2_PLACEMENT_3D('',#297,#226,#227);
#189=AXIS2_PLACEMENT_3D('',#298,#228,#229);
#190=AXIS2_PLACEMENT_3D('',#299,#230,#231);
#191=AXIS2_PLACEMENT_3D('',#300,#232,#233);
#192=AXIS2_PLACEMENT_3D('',#301,#234,#235);
#193=AXIS2_PLACEMENT_3D('',#302,#236,#237);
#194=AXIS2_PLACEMENT_3D('',#304,#238,#239);
#195=AXIS2_PLACEMENT_3D('',#305,#240,#241);
#196=AXIS2_PLACEMENT_3D('',#306,#242,#243);
#197=DIRECTION('axis',(0.,0.,1.));
#198=DIRECTION('refdir',(1.,0.,0.));
#199=DIRECTION('center_axis',(0.,-1.,0.));
#200=DIRECTION('ref_axis',(0.,0.,-1.));
#201=DIRECTION('',(1.,1.83697019872103E-16,0.));
#202=DIRECTION('',(-1.8117955605649E-16,0.,-1.));
#203=DIRECTION('',(0.987688340595138,0.,-0.156434465040231));
#204=DIRECTION('',(0.,0.,1.));
#205=DIRECTION('center_axis',(-0.156434465040231,0.,-0.987688340595138));
#206=DIRECTION('ref_axis',(-0.987688340595138,0.,0.156434465040231));
#207=DIRECTION('',(0.,-1.,0.));
#208=DIRECTION('',(-0.987688340595138,0.,0.156434465040231));
#209=DIRECTION('',(0.,1.,0.));
#210=DIRECTION('center_axis',(-1.,0.,1.8117955605649E-16));
#211=DIRECTION('ref_axis',(1.8117955605649E-16,0.,1.));
#212=DIRECTION('center_axis',(-1.,0.,1.8117955605649E-16));
#213=DIRECTION('ref_axis',(-1.8411999167338E-16,1.,0.));
#214=DIRECTION('',(1.8117955605649E-16,0.,1.));
#215=DIRECTION('center_axis',(0.,1.,0.));
#216=DIRECTION('ref_axis',(0.,0.,1.));
#217=DIRECTION('',(0.,0.,-1.));
#218=DIRECTION('',(-1.,-1.83697019872103E-16,0.));
#219=DIRECTION('center_axis',(1.,1.83697019872103E-16,0.));
#220=DIRECTION('ref_axis',(-1.8411999167338E-16,1.,0.));
#221=DIRECTION('center_axis',(1.,1.83697019872103E-16,0.));
#222=DIRECTION('ref_axis',(0.,0.,-1.));
#223=DIRECTION('',(-1.,-1.83697019872103E-16,0.));
#224=DIRECTION('center_axis',(1.,1.83697019872103E-16,0.));
#225=DIRECTION('ref_axis',(0.,0.,-1.));
#226=DIRECTION('center_axis',(1.,1.83697019872103E-16,0.));
#227=DIRECTION('ref_axis',(0.,0.,-1.));
#228=DIRECTION('center_axis',(1.,1.83697019872103E-16,0.));
#229=DIRECTION('ref_axis',(0.,0.,-1.));
#230=DIRECTION('center_axis',(1.,1.83697019872103E-16,0.));
#231=DIRECTION('ref_axis',(0.,1.22464679914735E-16,1.));
#232=DIRECTION('center_axis',(1.,1.83697019872103E-16,0.));
#233=DIRECTION('ref_axis',(0.,0.,-1.));
#234=DIRECTION('center_axis',(1.,1.83697019872103E-16,0.));
#235=DIRECTION('ref_axis',(0.,0.,-1.));
#236=DIRECTION('center_axis',(-1.,-1.83697019872103E-16,0.));
#237=DIRECTION('ref_axis',(0.,0.,1.));
#238=DIRECTION('center_axis',(1.,1.83697019872103E-16,0.));
#239=DIRECTION('ref_axis',(0.,0.,-1.));
#240=DIRECTION('center_axis',(1.,1.83697019872103E-16,0.));
#241=DIRECTION('ref_axis',(0.,0.,-1.));
#242=DIRECTION('center_axis',(1.83697019872103E-16,-1.,-1.22464679914735E-16));
#243=DIRECTION('ref_axis',(0.,-1.22464679914735E-16,1.));
#244=CARTESIAN_POINT('',(0.,0.,0.));
#245=CARTESIAN_POINT('Origin',(-0.5,-0.31375,-0.403307779837732));
#246=CARTESIAN_POINT('',(-0.0149999999999998,-0.31375,-0.540542262455028));
#247=CARTESIAN_POINT('',(1.59946173688321E-16,-0.31375,-0.523126120070485));
#248=CARTESIAN_POINT('Ctrl Pts',(-0.0149999999999998,-0.31375,-0.540542262455028));
#249=CARTESIAN_POINT('Ctrl Pts',(-0.0132355656821416,-0.31375,-0.540542262455028));
#250=CARTESIAN_POINT('Ctrl Pts',(-0.0111681479968212,-0.31375,-0.540085279851687));
#251=CARTESIAN_POINT('Ctrl Pts',(-0.00782405137247825,-0.31375,-0.538579492681298));
#252=CARTESIAN_POINT('Ctrl Pts',(-0.00599300778991214,-0.31375,-0.537214818880344));
#253=CARTESIAN_POINT('Ctrl Pts',(-0.00329952181488477,-0.31375,-0.534271105057418));
#254=CARTESIAN_POINT('Ctrl Pts',(-0.0020151273235724,-0.31375,-0.532121159458208));
#255=CARTESIAN_POINT('Ctrl Pts',(-0.00047300236904067,-0.31375,-0.528056792731111));
#256=CARTESIAN_POINT('Ctrl Pts',(1.63792197138744E-16,-0.31375,-0.525386228060401));
#257=CARTESIAN_POINT('Ctrl Pts',(1.63910879619856E-16,-0.31375,-0.523126120070485));
#258=CARTESIAN_POINT('',(-1.,-0.31375,-0.540542262455028));
#259=CARTESIAN_POINT('',(-4.4925,-0.31375,-0.540542262455028));
#260=CARTESIAN_POINT('',(-1.,-0.31375,-0.806615559675463));
#261=CARTESIAN_POINT('',(-1.,-0.31375,-0.806615559675463));
#262=CARTESIAN_POINT('',(0.,-0.31375,-0.965));
#263=CARTESIAN_POINT('',(0.,-0.31375,-0.965));
#264=CARTESIAN_POINT('',(0.,-0.31375,0.));
#265=CARTESIAN_POINT('Origin',(0.,0.,-0.965));
#266=CARTESIAN_POINT('',(-1.,0.31375,-0.806615559675463));
#267=CARTESIAN_POINT('',(-1.,0.,-0.806615559675463));
#268=CARTESIAN_POINT('',(0.,0.31375,-0.965));
#269=CARTESIAN_POINT('',(0.,0.31375,-0.965));
#270=CARTESIAN_POINT('',(0.,0.,-0.965));
#271=CARTESIAN_POINT('Origin',(-1.,0.,-0.806615559675463));
#272=CARTESIAN_POINT('',(-1.,0.31375,-0.540542262455027));
#273=CARTESIAN_POINT('Origin',(-1.,-1.83697019872103E-16,0.));
#274=CARTESIAN_POINT('',(-1.,0.31375,-0.806615559675463));
#275=CARTESIAN_POINT('Origin',(-0.5,0.31375,-0.403307779837732));
#276=CARTESIAN_POINT('',(0.,0.31375,-0.523126120070485));
#277=CARTESIAN_POINT('',(-0.015,0.31375,-0.540542262455028));
#278=CARTESIAN_POINT('Ctrl Pts',(4.9173263885957E-17,0.31375,-0.523126120070485));
#279=CARTESIAN_POINT('Ctrl Pts',(4.90545814048448E-17,0.31375,-0.525386228060401));
#280=CARTESIAN_POINT('Ctrl Pts',(-0.000473002369040814,0.31375,-0.528056792731111));
#281=CARTESIAN_POINT('Ctrl Pts',(-0.00201512732357255,0.31375,-0.532121159458208));
#282=CARTESIAN_POINT('Ctrl Pts',(-0.0032995218148849,0.31375,-0.534271105057418));
#283=CARTESIAN_POINT('Ctrl Pts',(-0.00599300778991227,0.31375,-0.537214818880344));
#284=CARTESIAN_POINT('Ctrl Pts',(-0.00782405137247841,0.31375,-0.538579492681298));
#285=CARTESIAN_POINT('Ctrl Pts',(-0.0111681479968214,0.31375,-0.540085279851687));
#286=CARTESIAN_POINT('Ctrl Pts',(-0.0132355656821418,0.31375,-0.540542262455028));
#287=CARTESIAN_POINT('Ctrl Pts',(-0.015,0.31375,-0.540542262455028));
#288=CARTESIAN_POINT('',(0.,0.31375,0.));
#289=CARTESIAN_POINT('',(-4.4925,0.31375,-0.540542262455027));
#290=CARTESIAN_POINT('Origin',(-4.4925,-8.25258861775423E-16,0.));
#291=CARTESIAN_POINT('',(-0.015,-0.625,-7.65404249467096E-17));
#292=CARTESIAN_POINT('Origin',(-0.0149999999999999,-2.75545529808153E-18,
0.));
#293=CARTESIAN_POINT('',(-8.97,-0.625000000000001,-7.65404249467096E-17));
#294=CARTESIAN_POINT('',(-4.4925,-0.625000000000001,-7.65404249467096E-17));
#295=CARTESIAN_POINT('',(-8.97,-1.72430269319947E-15,0.625));
#296=CARTESIAN_POINT('Origin',(-8.97,-1.64776226825276E-15,0.));
#297=CARTESIAN_POINT('Origin',(-8.97,-1.64776226825276E-15,0.));
#298=CARTESIAN_POINT('Origin',(-0.0149999999999999,-2.75545529808153E-18,
0.));
#299=CARTESIAN_POINT('Origin',(-0.0149999999999999,-2.75545529808153E-18,
0.));
#300=CARTESIAN_POINT('Origin',(1.12005767740235E-16,2.05483076743677E-32,
0.));
#301=CARTESIAN_POINT('Origin',(0.,0.,0.));
#302=CARTESIAN_POINT('Origin',(-9.,0.594999999999998,0.));
#303=CARTESIAN_POINT('',(-9.,-1.72613966339819E-15,0.595));
#304=CARTESIAN_POINT('Origin',(-9.,-1.65327317884893E-15,0.));
#305=CARTESIAN_POINT('Origin',(-8.97,-1.64776226825276E-15,0.));
#306=CARTESIAN_POINT('Origin',(-8.97,-1.72062875280203E-15,0.595));
#307=UNCERTAINTY_MEASURE_WITH_UNIT(LENGTH_MEASURE(0.000393700787401575),
#312,'DISTANCE_ACCURACY_VALUE',
'Maximum model space distance between geometric entities at asserted c
onnectivities');
#308=UNCERTAINTY_MEASURE_WITH_UNIT(LENGTH_MEASURE(0.000393700787401575),
#312,'DISTANCE_ACCURACY_VALUE',
'Maximum model space distance between geometric entities at asserted c
onnectivities');
#309=(
GEOMETRIC_REPRESENTATION_CONTEXT(3)
GLOBAL_UNCERTAINTY_ASSIGNED_CONTEXT((#307))
GLOBAL_UNIT_ASSIGNED_CONTEXT((#312,#316,#317))
REPRESENTATION_CONTEXT('','3D')
);
#310=(
GEOMETRIC_REPRESENTATION_CONTEXT(3)
GLOBAL_UNCERTAINTY_ASSIGNED_CONTEXT((#308))
GLOBAL_UNIT_ASSIGNED_CONTEXT((#312,#316,#317))
REPRESENTATION_CONTEXT('','3D')
);
#311=DIMENSIONAL_EXPONENTS(1.,0.,0.,0.,0.,0.,0.);
#312=(
CONVERSION_BASED_UNIT('inch',#315)
LENGTH_UNIT()
NAMED_UNIT(#311)
);
#313=(
LENGTH_UNIT()
NAMED_UNIT(*)
SI_UNIT(.MILLI.,.METRE.)
);
#314=(
LENGTH_UNIT()
NAMED_UNIT(*)
SI_UNIT(.CENTI.,.METRE.)
);
#315=LENGTH_MEASURE_WITH_UNIT(LENGTH_MEASURE(25.4),#313);
#316=(
NAMED_UNIT(*)
PLANE_ANGLE_UNIT()
SI_UNIT($,.RADIAN.)
);
#317=(
NAMED_UNIT(*)
SI_UNIT($,.STERADIAN.)
SOLID_ANGLE_UNIT()
);
#318=SHAPE_DEFINITION_REPRESENTATION(#319,#320);
#319=PRODUCT_DEFINITION_SHAPE('',$,#322);
#320=SHAPE_REPRESENTATION('',(#179),#309);
#321=PRODUCT_DEFINITION_CONTEXT('part definition',#326,'design');
#322=PRODUCT_DEFINITION('T58L','T58L',#323,#321);
#323=PRODUCT_DEFINITION_FORMATION('',$,#328);
#324=PRODUCT_RELATED_PRODUCT_CATEGORY('T58L','T58L',(#328));
#325=APPLICATION_PROTOCOL_DEFINITION('international standard',
'automotive_design',2009,#326);
#326=APPLICATION_CONTEXT(
'Core Data for Automotive Mechanical Design Process');
#327=PRODUCT_CONTEXT('part definition',#326,'mechanical');
#328=PRODUCT('T58L','T58L',$,(#327));
#329=PRESENTATION_STYLE_ASSIGNMENT((#330));
#330=SURFACE_STYLE_USAGE(.BOTH.,#333);
#331=SURFACE_STYLE_RENDERING_WITH_PROPERTIES($,#337,(#332));
#332=SURFACE_STYLE_TRANSPARENT(0.);
#333=SURFACE_SIDE_STYLE('',(#334,#331));
#334=SURFACE_STYLE_FILL_AREA(#335);
#335=FILL_AREA_STYLE('',(#336));
#336=FILL_AREA_STYLE_COLOUR('',#337);
#337=COLOUR_RGB('',0.749019607843137,0.749019607843137,0.749019607843137);
ENDSEC;
END-ISO-10303-21;
