ISO-10303-21;
HEADER;
/* Generated by software containing ST-Developer
 * from STEP Tools, Inc. (www.steptools.com) 
 */

FILE_DESCRIPTION(
/* description */ (''),
/* implementation_level */ '2;1');

FILE_NAME(
/* name */ 
'C:\\Users\\shane\\Desktop\\CNC Broach Tools\\Tool Library\\Cam stp Mo
dels\\T516L\\T516L.stp',
/* time_stamp */ '2021-12-14T15:55:49-07:00',
/* author */ ('shane'),
/* organization */ (''),
/* preprocessor_version */ 'ST-DEVELOPER v18.1',
/* originating_system */ 'Autodesk Inventor 2022',
/* authorisation */ '');

FILE_SCHEMA (('AUTOMOTIVE_DESIGN { 1 0 10303 214 3 1 1 }'));
ENDSEC;

DATA;
#10=MECHANICAL_DESIGN_GEOMETRIC_PRESENTATION_REPRESENTATION('',(#13),#381);
#11=SHAPE_REPRESENTATION_RELATIONSHIP('SRR','None',#391,#12);
#12=ADVANCED_BREP_SHAPE_REPRESENTATION('',(#14),#380);
#13=STYLED_ITEM('',(#400),#14);
#14=MANIFOLD_SOLID_BREP('Solid1',#197);
#15=TOROIDAL_SURFACE('',#227,0.305,0.01);
#16=TOROIDAL_SURFACE('',#232,0.344999999999999,0.0300000000000001);
#17=TOROIDAL_SURFACE('',#239,0.375,0.06);
#18=CYLINDRICAL_SURFACE('',#222,0.315);
#19=CYLINDRICAL_SURFACE('',#236,0.375);
#20=CIRCLE('',#221,0.315);
#21=CIRCLE('',#223,0.315);
#22=CIRCLE('',#224,0.315);
#23=CIRCLE('',#225,0.315);
#24=CIRCLE('',#226,0.315);
#25=CIRCLE('',#228,0.305);
#26=CIRCLE('',#231,0.344999999999999);
#27=CIRCLE('',#233,0.375);
#28=CIRCLE('',#234,0.375);
#29=CIRCLE('',#235,0.0300000000000001);
#30=CIRCLE('',#237,0.375);
#31=CIRCLE('',#238,0.375);
#32=CIRCLE('',#240,0.06);
#33=FACE_OUTER_BOUND('',#44,.T.);
#34=FACE_OUTER_BOUND('',#45,.T.);
#35=FACE_OUTER_BOUND('',#46,.T.);
#36=FACE_OUTER_BOUND('',#47,.T.);
#37=FACE_OUTER_BOUND('',#48,.T.);
#38=FACE_OUTER_BOUND('',#49,.T.);
#39=FACE_OUTER_BOUND('',#50,.T.);
#40=FACE_OUTER_BOUND('',#51,.T.);
#41=FACE_OUTER_BOUND('',#52,.T.);
#42=FACE_OUTER_BOUND('',#53,.T.);
#43=FACE_OUTER_BOUND('',#54,.T.);
#44=EDGE_LOOP('',(#126,#127,#128,#129,#130));
#45=EDGE_LOOP('',(#131,#132,#133,#134,#135));
#46=EDGE_LOOP('',(#136,#137,#138,#139));
#47=EDGE_LOOP('',(#140,#141,#142,#143));
#48=EDGE_LOOP('',(#144,#145,#146,#147,#148,#149,#150,#151,#152));
#49=EDGE_LOOP('',(#153,#154,#155,#156,#157));
#50=EDGE_LOOP('',(#158,#159,#160,#161));
#51=EDGE_LOOP('',(#162));
#52=EDGE_LOOP('',(#163,#164,#165,#166,#167));
#53=EDGE_LOOP('',(#168,#169,#170,#171,#172,#173));
#54=EDGE_LOOP('',(#174,#175,#176,#177,#178,#179));
#55=B_SPLINE_CURVE_WITH_KNOTS('',3,(#309,#310,#311,#312,#313,#314,#315,
#316,#317,#318),.UNSPECIFIED.,.F.,.F.,(4,2,2,2,4),(-0.0408072377084928,
-0.0292523299975117,-0.0186225619595121,-0.00895342526805248,0.),
 .UNSPECIFIED.);
#56=B_SPLINE_CURVE_WITH_KNOTS('',3,(#334,#335,#336,#337,#338,#339,#340,
#341,#342,#343),.UNSPECIFIED.,.F.,.F.,(4,2,2,2,4),(0.,0.00895342526805239,
0.018622561959512,0.0292523299975117,0.0408072377084928),.UNSPECIFIED.);
#57=LINE('',#307,#69);
#58=LINE('',#320,#70);
#59=LINE('',#322,#71);
#60=LINE('',#323,#72);
#61=LINE('',#327,#73);
#62=LINE('',#329,#74);
#63=LINE('',#331,#75);
#64=LINE('',#333,#76);
#65=LINE('',#345,#77);
#66=LINE('',#346,#78);
#67=LINE('',#353,#79);
#68=LINE('',#374,#80);
#69=VECTOR('',#245,0.393700787401575);
#70=VECTOR('',#246,0.393700787401575);
#71=VECTOR('',#247,0.393700787401575);
#72=VECTOR('',#248,0.393700787401575);
#73=VECTOR('',#251,0.393700787401575);
#74=VECTOR('',#252,0.393700787401575);
#75=VECTOR('',#253,0.393700787401575);
#76=VECTOR('',#254,0.393700787401575);
#77=VECTOR('',#257,0.393700787401575);
#78=VECTOR('',#258,0.393700787401575);
#79=VECTOR('',#267,0.315);
#80=VECTOR('',#296,0.375);
#81=VERTEX_POINT('',#305);
#82=VERTEX_POINT('',#306);
#83=VERTEX_POINT('',#308);
#84=VERTEX_POINT('',#319);
#85=VERTEX_POINT('',#321);
#86=VERTEX_POINT('',#325);
#87=VERTEX_POINT('',#326);
#88=VERTEX_POINT('',#328);
#89=VERTEX_POINT('',#330);
#90=VERTEX_POINT('',#332);
#91=VERTEX_POINT('',#350);
#92=VERTEX_POINT('',#352);
#93=VERTEX_POINT('',#354);
#94=VERTEX_POINT('',#362);
#95=VERTEX_POINT('',#365);
#96=VERTEX_POINT('',#366);
#97=VERTEX_POINT('',#371);
#98=VERTEX_POINT('',#372);
#99=EDGE_CURVE('',#81,#82,#57,.T.);
#100=EDGE_CURVE('',#83,#81,#55,.T.);
#101=EDGE_CURVE('',#83,#84,#58,.T.);
#102=EDGE_CURVE('',#84,#85,#59,.T.);
#103=EDGE_CURVE('',#85,#82,#60,.T.);
#104=EDGE_CURVE('',#86,#87,#61,.T.);
#105=EDGE_CURVE('',#86,#88,#62,.T.);
#106=EDGE_CURVE('',#88,#89,#63,.T.);
#107=EDGE_CURVE('',#89,#90,#64,.T.);
#108=EDGE_CURVE('',#87,#90,#56,.T.);
#109=EDGE_CURVE('',#85,#88,#65,.T.);
#110=EDGE_CURVE('',#89,#84,#66,.T.);
#111=EDGE_CURVE('',#82,#86,#20,.T.);
#112=EDGE_CURVE('',#91,#87,#21,.T.);
#113=EDGE_CURVE('',#91,#92,#67,.T.);
#114=EDGE_CURVE('',#92,#93,#22,.T.);
#115=EDGE_CURVE('',#93,#92,#23,.T.);
#116=EDGE_CURVE('',#81,#91,#24,.T.);
#117=EDGE_CURVE('',#83,#90,#25,.T.);
#118=EDGE_CURVE('',#94,#94,#26,.T.);
#119=EDGE_CURVE('',#95,#96,#27,.T.);
#120=EDGE_CURVE('',#96,#95,#28,.T.);
#121=EDGE_CURVE('',#96,#94,#29,.T.);
#122=EDGE_CURVE('',#97,#98,#30,.T.);
#123=EDGE_CURVE('',#97,#95,#68,.T.);
#124=EDGE_CURVE('',#98,#97,#31,.T.);
#125=EDGE_CURVE('',#98,#93,#32,.T.);
#126=ORIENTED_EDGE('',*,*,#99,.F.);
#127=ORIENTED_EDGE('',*,*,#100,.F.);
#128=ORIENTED_EDGE('',*,*,#101,.T.);
#129=ORIENTED_EDGE('',*,*,#102,.T.);
#130=ORIENTED_EDGE('',*,*,#103,.T.);
#131=ORIENTED_EDGE('',*,*,#104,.F.);
#132=ORIENTED_EDGE('',*,*,#105,.T.);
#133=ORIENTED_EDGE('',*,*,#106,.T.);
#134=ORIENTED_EDGE('',*,*,#107,.T.);
#135=ORIENTED_EDGE('',*,*,#108,.F.);
#136=ORIENTED_EDGE('',*,*,#109,.F.);
#137=ORIENTED_EDGE('',*,*,#102,.F.);
#138=ORIENTED_EDGE('',*,*,#110,.F.);
#139=ORIENTED_EDGE('',*,*,#106,.F.);
#140=ORIENTED_EDGE('',*,*,#111,.F.);
#141=ORIENTED_EDGE('',*,*,#103,.F.);
#142=ORIENTED_EDGE('',*,*,#109,.T.);
#143=ORIENTED_EDGE('',*,*,#105,.F.);
#144=ORIENTED_EDGE('',*,*,#99,.T.);
#145=ORIENTED_EDGE('',*,*,#111,.T.);
#146=ORIENTED_EDGE('',*,*,#104,.T.);
#147=ORIENTED_EDGE('',*,*,#112,.F.);
#148=ORIENTED_EDGE('',*,*,#113,.T.);
#149=ORIENTED_EDGE('',*,*,#114,.T.);
#150=ORIENTED_EDGE('',*,*,#115,.T.);
#151=ORIENTED_EDGE('',*,*,#113,.F.);
#152=ORIENTED_EDGE('',*,*,#116,.F.);
#153=ORIENTED_EDGE('',*,*,#100,.T.);
#154=ORIENTED_EDGE('',*,*,#116,.T.);
#155=ORIENTED_EDGE('',*,*,#112,.T.);
#156=ORIENTED_EDGE('',*,*,#108,.T.);
#157=ORIENTED_EDGE('',*,*,#117,.F.);
#158=ORIENTED_EDGE('',*,*,#117,.T.);
#159=ORIENTED_EDGE('',*,*,#107,.F.);
#160=ORIENTED_EDGE('',*,*,#110,.T.);
#161=ORIENTED_EDGE('',*,*,#101,.F.);
#162=ORIENTED_EDGE('',*,*,#118,.F.);
#163=ORIENTED_EDGE('',*,*,#119,.F.);
#164=ORIENTED_EDGE('',*,*,#120,.F.);
#165=ORIENTED_EDGE('',*,*,#121,.T.);
#166=ORIENTED_EDGE('',*,*,#118,.T.);
#167=ORIENTED_EDGE('',*,*,#121,.F.);
#168=ORIENTED_EDGE('',*,*,#122,.F.);
#169=ORIENTED_EDGE('',*,*,#123,.T.);
#170=ORIENTED_EDGE('',*,*,#119,.T.);
#171=ORIENTED_EDGE('',*,*,#120,.T.);
#172=ORIENTED_EDGE('',*,*,#123,.F.);
#173=ORIENTED_EDGE('',*,*,#124,.F.);
#174=ORIENTED_EDGE('',*,*,#122,.T.);
#175=ORIENTED_EDGE('',*,*,#125,.T.);
#176=ORIENTED_EDGE('',*,*,#114,.F.);
#177=ORIENTED_EDGE('',*,*,#115,.F.);
#178=ORIENTED_EDGE('',*,*,#125,.F.);
#179=ORIENTED_EDGE('',*,*,#124,.T.);
#180=PLANE('',#217);
#181=PLANE('',#218);
#182=PLANE('',#219);
#183=PLANE('',#220);
#184=PLANE('',#229);
#185=PLANE('',#230);
#186=ADVANCED_FACE('',(#33),#180,.T.);
#187=ADVANCED_FACE('',(#34),#181,.T.);
#188=ADVANCED_FACE('',(#35),#182,.T.);
#189=ADVANCED_FACE('',(#36),#183,.T.);
#190=ADVANCED_FACE('',(#37),#18,.T.);
#191=ADVANCED_FACE('',(#38),#15,.T.);
#192=ADVANCED_FACE('',(#39),#184,.T.);
#193=ADVANCED_FACE('',(#40),#185,.T.);
#194=ADVANCED_FACE('',(#41),#16,.T.);
#195=ADVANCED_FACE('',(#42),#19,.T.);
#196=ADVANCED_FACE('',(#43),#17,.F.);
#197=CLOSED_SHELL('',(#186,#187,#188,#189,#190,#191,#192,#193,#194,#195,
#196));
#198=DERIVED_UNIT_ELEMENT(#200,1.);
#199=DERIVED_UNIT_ELEMENT(#385,-3.);
#200=(
MASS_UNIT()
NAMED_UNIT(*)
SI_UNIT($,.GRAM.)
);
#201=DERIVED_UNIT((#198,#199));
#202=MEASURE_REPRESENTATION_ITEM('density measure',
POSITIVE_RATIO_MEASURE(1.),#201);
#203=PROPERTY_DEFINITION_REPRESENTATION(#208,#205);
#204=PROPERTY_DEFINITION_REPRESENTATION(#209,#206);
#205=REPRESENTATION('material name',(#207),#380);
#206=REPRESENTATION('density',(#202),#380);
#207=DESCRIPTIVE_REPRESENTATION_ITEM('Generic','Generic');
#208=PROPERTY_DEFINITION('material property','material name',#393);
#209=PROPERTY_DEFINITION('material property','density of part',#393);
#210=DATE_TIME_ROLE('creation_date');
#211=APPLIED_DATE_AND_TIME_ASSIGNMENT(#212,#210,(#393));
#212=DATE_AND_TIME(#213,#214);
#213=CALENDAR_DATE(2021,14,12);
#214=LOCAL_TIME(0,0,0.,#215);
#215=COORDINATED_UNIVERSAL_TIME_OFFSET(0,0,.BEHIND.);
#216=AXIS2_PLACEMENT_3D('placement',#303,#241,#242);
#217=AXIS2_PLACEMENT_3D('',#304,#243,#244);
#218=AXIS2_PLACEMENT_3D('',#324,#249,#250);
#219=AXIS2_PLACEMENT_3D('',#344,#255,#256);
#220=AXIS2_PLACEMENT_3D('',#347,#259,#260);
#221=AXIS2_PLACEMENT_3D('',#348,#261,#262);
#222=AXIS2_PLACEMENT_3D('',#349,#263,#264);
#223=AXIS2_PLACEMENT_3D('',#351,#265,#266);
#224=AXIS2_PLACEMENT_3D('',#355,#268,#269);
#225=AXIS2_PLACEMENT_3D('',#356,#270,#271);
#226=AXIS2_PLACEMENT_3D('',#357,#272,#273);
#227=AXIS2_PLACEMENT_3D('',#358,#274,#275);
#228=AXIS2_PLACEMENT_3D('',#359,#276,#277);
#229=AXIS2_PLACEMENT_3D('',#360,#278,#279);
#230=AXIS2_PLACEMENT_3D('',#361,#280,#281);
#231=AXIS2_PLACEMENT_3D('',#363,#282,#283);
#232=AXIS2_PLACEMENT_3D('',#364,#284,#285);
#233=AXIS2_PLACEMENT_3D('',#367,#286,#287);
#234=AXIS2_PLACEMENT_3D('',#368,#288,#289);
#235=AXIS2_PLACEMENT_3D('',#369,#290,#291);
#236=AXIS2_PLACEMENT_3D('',#370,#292,#293);
#237=AXIS2_PLACEMENT_3D('',#373,#294,#295);
#238=AXIS2_PLACEMENT_3D('',#375,#297,#298);
#239=AXIS2_PLACEMENT_3D('',#376,#299,#300);
#240=AXIS2_PLACEMENT_3D('',#377,#301,#302);
#241=DIRECTION('axis',(0.,0.,1.));
#242=DIRECTION('refdir',(1.,0.,0.));
#243=DIRECTION('center_axis',(0.,1.,0.));
#244=DIRECTION('ref_axis',(0.,0.,1.));
#245=DIRECTION('',(-1.,-1.22464679914735E-16,0.));
#246=DIRECTION('',(0.,0.,-1.));
#247=DIRECTION('',(-0.99026806874157,0.,0.139173100960066));
#248=DIRECTION('',(1.69745894751954E-16,0.,1.));
#249=DIRECTION('center_axis',(0.,-1.,0.));
#250=DIRECTION('ref_axis',(0.,0.,-1.));
#251=DIRECTION('',(1.,1.22464679914735E-16,0.));
#252=DIRECTION('',(-1.69745894751954E-16,0.,-1.));
#253=DIRECTION('',(0.99026806874157,0.,-0.139173100960066));
#254=DIRECTION('',(0.,0.,1.));
#255=DIRECTION('center_axis',(-0.139173100960066,0.,-0.99026806874157));
#256=DIRECTION('ref_axis',(-0.99026806874157,0.,0.139173100960066));
#257=DIRECTION('',(0.,-1.,0.));
#258=DIRECTION('',(0.,1.,0.));
#259=DIRECTION('center_axis',(-1.,0.,1.69745894751954E-16));
#260=DIRECTION('ref_axis',(1.69745894751954E-16,0.,1.));
#261=DIRECTION('center_axis',(-1.,0.,1.69745894751954E-16));
#262=DIRECTION('ref_axis',(0.,1.,0.));
#263=DIRECTION('center_axis',(1.,1.22464679914735E-16,0.));
#264=DIRECTION('ref_axis',(0.,1.,0.));
#265=DIRECTION('center_axis',(1.,1.22464679914735E-16,0.));
#266=DIRECTION('ref_axis',(0.,0.,-1.));
#267=DIRECTION('',(-1.,-1.22464679914735E-16,0.));
#268=DIRECTION('center_axis',(1.,1.22464679914735E-16,0.));
#269=DIRECTION('ref_axis',(0.,0.,-1.));
#270=DIRECTION('center_axis',(1.,1.22464679914735E-16,0.));
#271=DIRECTION('ref_axis',(0.,0.,-1.));
#272=DIRECTION('center_axis',(1.,1.22464679914735E-16,0.));
#273=DIRECTION('ref_axis',(0.,0.,-1.));
#274=DIRECTION('center_axis',(1.,1.22464679914735E-16,0.));
#275=DIRECTION('ref_axis',(0.,1.22464679914735E-16,1.));
#276=DIRECTION('center_axis',(1.,1.22464679914735E-16,0.));
#277=DIRECTION('ref_axis',(0.,0.,-1.));
#278=DIRECTION('center_axis',(1.,1.22464679914735E-16,0.));
#279=DIRECTION('ref_axis',(0.,0.,-1.));
#280=DIRECTION('center_axis',(-1.,-1.22464679914735E-16,0.));
#281=DIRECTION('ref_axis',(0.,0.,1.));
#282=DIRECTION('center_axis',(1.,1.22464679914735E-16,0.));
#283=DIRECTION('ref_axis',(0.,0.,-1.));
#284=DIRECTION('center_axis',(1.,1.22464679914735E-16,0.));
#285=DIRECTION('ref_axis',(0.,0.,-1.));
#286=DIRECTION('center_axis',(1.,1.22464679914735E-16,0.));
#287=DIRECTION('ref_axis',(0.,0.,-1.));
#288=DIRECTION('center_axis',(1.,1.22464679914735E-16,0.));
#289=DIRECTION('ref_axis',(0.,0.,-1.));
#290=DIRECTION('center_axis',(1.22464679914735E-16,-1.,-1.22464679914735E-16));
#291=DIRECTION('ref_axis',(0.,-1.22464679914735E-16,1.));
#292=DIRECTION('center_axis',(1.,1.22464679914735E-16,0.));
#293=DIRECTION('ref_axis',(0.,1.,0.));
#294=DIRECTION('center_axis',(1.,1.22464679914735E-16,0.));
#295=DIRECTION('ref_axis',(0.,0.,-1.));
#296=DIRECTION('',(-1.,-1.22464679914735E-16,0.));
#297=DIRECTION('center_axis',(1.,1.22464679914735E-16,0.));
#298=DIRECTION('ref_axis',(0.,0.,-1.));
#299=DIRECTION('center_axis',(1.,1.22464679914735E-16,0.));
#300=DIRECTION('ref_axis',(0.,0.,-1.));
#301=DIRECTION('center_axis',(1.22464679914735E-16,-1.,-1.22464679914735E-16));
#302=DIRECTION('ref_axis',(0.,-1.22464679914735E-16,1.));
#303=CARTESIAN_POINT('',(0.,0.,0.));
#304=CARTESIAN_POINT('Origin',(-0.375,0.15925,-0.204797186986603));
#305=CARTESIAN_POINT('',(-0.00999999999999996,0.15925,-0.271780127124851));
#306=CARTESIAN_POINT('',(-0.75,0.15925,-0.271780127124851));
#307=CARTESIAN_POINT('',(-1.475,0.15925,-0.271780127124851));
#308=CARTESIAN_POINT('',(0.,0.15925,-0.260123888753033));
#309=CARTESIAN_POINT('Ctrl Pts',(3.27821759239712E-17,0.15925,-0.260123888753033));
#310=CARTESIAN_POINT('Ctrl Pts',(3.27029854824391E-17,0.15925,-0.261640280841088));
#311=CARTESIAN_POINT('Ctrl Pts',(-0.000315927279225941,0.15925,-0.263432316193259));
#312=CARTESIAN_POINT('Ctrl Pts',(-0.0013467801711226,0.15925,-0.266155080481234));
#313=CARTESIAN_POINT('Ctrl Pts',(-0.00220361334947192,0.15925,-0.267593149787188));
#314=CARTESIAN_POINT('Ctrl Pts',(-0.00400027087465277,0.15925,-0.26955996845413));
#315=CARTESIAN_POINT('Ctrl Pts',(-0.00522038687282292,0.15925,-0.27047097243673));
#316=CARTESIAN_POINT('Ctrl Pts',(-0.00744834272450691,0.15925,-0.271475406670778));
#317=CARTESIAN_POINT('Ctrl Pts',(-0.00882500980734215,0.15925,-0.271780127124851));
#318=CARTESIAN_POINT('Ctrl Pts',(-0.00999999999999996,0.15925,-0.271780127124851));
#319=CARTESIAN_POINT('',(0.,0.15925,-0.515));
#320=CARTESIAN_POINT('',(0.,0.15925,0.));
#321=CARTESIAN_POINT('',(-0.75,0.15925,-0.409594373973206));
#322=CARTESIAN_POINT('',(0.,0.15925,-0.515));
#323=CARTESIAN_POINT('',(-0.75,0.15925,-0.409594373973206));
#324=CARTESIAN_POINT('Origin',(-0.375,-0.15925,-0.204797186986603));
#325=CARTESIAN_POINT('',(-0.75,-0.15925,-0.271780127124851));
#326=CARTESIAN_POINT('',(-0.00999999999999994,-0.15925,-0.271780127124851));
#327=CARTESIAN_POINT('',(-1.475,-0.15925,-0.271780127124851));
#328=CARTESIAN_POINT('',(-0.75,-0.15925,-0.409594373973206));
#329=CARTESIAN_POINT('',(-0.75,-0.15925,-0.409594373973206));
#330=CARTESIAN_POINT('',(0.,-0.15925,-0.515));
#331=CARTESIAN_POINT('',(0.,-0.15925,-0.515));
#332=CARTESIAN_POINT('',(0.,-0.15925,-0.260123888753033));
#333=CARTESIAN_POINT('',(0.,-0.15925,0.));
#334=CARTESIAN_POINT('Ctrl Pts',(-0.00999999999999994,-0.15925,-0.271780127124851));
#335=CARTESIAN_POINT('Ctrl Pts',(-0.00882500980734214,-0.15925,-0.271780127124851));
#336=CARTESIAN_POINT('Ctrl Pts',(-0.00744834272450693,-0.15925,-0.271475406670778));
#337=CARTESIAN_POINT('Ctrl Pts',(-0.00522038687282294,-0.15925,-0.27047097243673));
#338=CARTESIAN_POINT('Ctrl Pts',(-0.0040002708746528,-0.15925,-0.26955996845413));
#339=CARTESIAN_POINT('Ctrl Pts',(-0.00220361334947193,-0.15925,-0.267593149787188));
#340=CARTESIAN_POINT('Ctrl Pts',(-0.00134678017112259,-0.15925,-0.266155080481234));
#341=CARTESIAN_POINT('Ctrl Pts',(-0.000315927279225921,-0.15925,-0.263432316193259));
#342=CARTESIAN_POINT('Ctrl Pts',(7.09488573937388E-17,-0.15925,-0.261640280841088));
#343=CARTESIAN_POINT('Ctrl Pts',(7.10280478352708E-17,-0.15925,-0.260123888753033));
#344=CARTESIAN_POINT('Origin',(0.,0.,-0.515));
#345=CARTESIAN_POINT('',(-0.75,0.,-0.409594373973206));
#346=CARTESIAN_POINT('',(0.,0.,-0.515));
#347=CARTESIAN_POINT('Origin',(-0.75,0.,-0.409594373973206));
#348=CARTESIAN_POINT('Origin',(-0.75,-9.18485099360515E-17,0.));
#349=CARTESIAN_POINT('Origin',(-1.475,-1.80635402874235E-16,0.));
#350=CARTESIAN_POINT('',(-0.00999999999999995,-0.315,-3.85763741731416E-17));
#351=CARTESIAN_POINT('Origin',(-0.00999999999999995,-1.22464679914735E-18,
0.));
#352=CARTESIAN_POINT('',(-2.94,-0.315,-3.85763741731416E-17));
#353=CARTESIAN_POINT('',(-1.475,-0.315,-3.85763741731416E-17));
#354=CARTESIAN_POINT('',(-2.94,-3.98622533122463E-16,0.315));
#355=CARTESIAN_POINT('Origin',(-2.94,-3.60046158949322E-16,0.));
#356=CARTESIAN_POINT('Origin',(-2.94,-3.60046158949322E-16,0.));
#357=CARTESIAN_POINT('Origin',(-0.00999999999999995,-1.22464679914735E-18,
0.));
#358=CARTESIAN_POINT('Origin',(-0.00999999999999995,-1.22464679914735E-18,
0.));
#359=CARTESIAN_POINT('Origin',(0.,0.,0.));
#360=CARTESIAN_POINT('Origin',(0.,0.,0.));
#361=CARTESIAN_POINT('Origin',(-5.,0.344999999999999,0.));
#362=CARTESIAN_POINT('',(-5.,-6.5457371414426E-16,0.344999999999999));
#363=CARTESIAN_POINT('Origin',(-5.,-6.12323399573677E-16,0.));
#364=CARTESIAN_POINT('Origin',(-4.97,-6.08649459176234E-16,0.));
#365=CARTESIAN_POINT('',(-4.97,-0.375,-4.59242549680257E-17));
#366=CARTESIAN_POINT('',(-4.97,-6.5457371414426E-16,0.375));
#367=CARTESIAN_POINT('Origin',(-4.97,-6.08649459176234E-16,0.));
#368=CARTESIAN_POINT('Origin',(-4.97,-6.08649459176234E-16,0.));
#369=CARTESIAN_POINT('Origin',(-4.97,-6.50899773746818E-16,0.344999999999999));
#370=CARTESIAN_POINT('Origin',(-3.985,-4.8802174946022E-16,0.));
#371=CARTESIAN_POINT('',(-3.,-0.375,-4.59242549680257E-17));
#372=CARTESIAN_POINT('',(-3.,-4.13318294712232E-16,0.375));
#373=CARTESIAN_POINT('Origin',(-3.,-3.67394039744206E-16,0.));
#374=CARTESIAN_POINT('',(-3.985,-0.375,-4.59242549680257E-17));
#375=CARTESIAN_POINT('Origin',(-3.,-3.67394039744206E-16,0.));
#376=CARTESIAN_POINT('Origin',(-2.94,-3.60046158949322E-16,0.));
#377=CARTESIAN_POINT('Origin',(-2.94,-4.05970413917348E-16,0.375));
#378=UNCERTAINTY_MEASURE_WITH_UNIT(LENGTH_MEASURE(0.000393700787401575),
#383,'DISTANCE_ACCURACY_VALUE',
'Maximum model space distance between geometric entities at asserted c
onnectivities');
#379=UNCERTAINTY_MEASURE_WITH_UNIT(LENGTH_MEASURE(0.000393700787401575),
#383,'DISTANCE_ACCURACY_VALUE',
'Maximum model space distance between geometric entities at asserted c
onnectivities');
#380=(
GEOMETRIC_REPRESENTATION_CONTEXT(3)
GLOBAL_UNCERTAINTY_ASSIGNED_CONTEXT((#378))
GLOBAL_UNIT_ASSIGNED_CONTEXT((#383,#387,#388))
REPRESENTATION_CONTEXT('','3D')
);
#381=(
GEOMETRIC_REPRESENTATION_CONTEXT(3)
GLOBAL_UNCERTAINTY_ASSIGNED_CONTEXT((#379))
GLOBAL_UNIT_ASSIGNED_CONTEXT((#383,#387,#388))
REPRESENTATION_CONTEXT('','3D')
);
#382=DIMENSIONAL_EXPONENTS(1.,0.,0.,0.,0.,0.,0.);
#383=(
CONVERSION_BASED_UNIT('inch',#386)
LENGTH_UNIT()
NAMED_UNIT(#382)
);
#384=(
LENGTH_UNIT()
NAMED_UNIT(*)
SI_UNIT(.MILLI.,.METRE.)
);
#385=(
LENGTH_UNIT()
NAMED_UNIT(*)
SI_UNIT(.CENTI.,.METRE.)
);
#386=LENGTH_MEASURE_WITH_UNIT(LENGTH_MEASURE(25.4),#384);
#387=(
NAMED_UNIT(*)
PLANE_ANGLE_UNIT()
SI_UNIT($,.RADIAN.)
);
#388=(
NAMED_UNIT(*)
SI_UNIT($,.STERADIAN.)
SOLID_ANGLE_UNIT()
);
#389=SHAPE_DEFINITION_REPRESENTATION(#390,#391);
#390=PRODUCT_DEFINITION_SHAPE('',$,#393);
#391=SHAPE_REPRESENTATION('',(#216),#380);
#392=PRODUCT_DEFINITION_CONTEXT('part definition',#397,'design');
#393=PRODUCT_DEFINITION('T516L','T516L',#394,#392);
#394=PRODUCT_DEFINITION_FORMATION('',$,#399);
#395=PRODUCT_RELATED_PRODUCT_CATEGORY('T516L','T516L',(#399));
#396=APPLICATION_PROTOCOL_DEFINITION('international standard',
'automotive_design',2009,#397);
#397=APPLICATION_CONTEXT(
'Core Data for Automotive Mechanical Design Process');
#398=PRODUCT_CONTEXT('part definition',#397,'mechanical');
#399=PRODUCT('T516L','T516L',$,(#398));
#400=PRESENTATION_STYLE_ASSIGNMENT((#401));
#401=SURFACE_STYLE_USAGE(.BOTH.,#404);
#402=SURFACE_STYLE_RENDERING_WITH_PROPERTIES($,#408,(#403));
#403=SURFACE_STYLE_TRANSPARENT(0.);
#404=SURFACE_SIDE_STYLE('',(#405,#402));
#405=SURFACE_STYLE_FILL_AREA(#406);
#406=FILL_AREA_STYLE('',(#407));
#407=FILL_AREA_STYLE_COLOUR('',#408);
#408=COLOUR_RGB('',0.749019607843137,0.749019607843137,0.749019607843137);
ENDSEC;
END-ISO-10303-21;
