ISO-10303-21;
HEADER;
/* Generated by software containing ST-Developer
 * from STEP Tools, Inc. (www.steptools.com) 
 */

FILE_DESCRIPTION(
/* description */ (''),
/* implementation_level */ '2;1');

FILE_NAME(
/* name */ 'T38SM.stp',
/* time_stamp */ '2024-05-02T15:08:32-07:00',
/* author */ ('shane'),
/* organization */ (''),
/* preprocessor_version */ 'ST-DEVELOPER v20',
/* originating_system */ 'Autodesk Inventor 2024',
/* authorisation */ '');

FILE_SCHEMA (('AUTOMOTIVE_DESIGN { 1 0 10303 214 3 1 1 }'));
ENDSEC;

DATA;
#10=MECHANICAL_DESIGN_GEOMETRIC_PRESENTATION_REPRESENTATION('',(#48,#49,
#50,#51,#52,#53,#54,#55,#56,#57,#58,#59),#453);
#11=SHAPE_REPRESENTATION_RELATIONSHIP('SRR','None',#464,#12);
#12=ADVANCED_BREP_SHAPE_REPRESENTATION('',(#13),#452);
#13=MANIFOLD_SOLID_BREP('Solid1',#226);
#14=ELLIPSE('',#259,0.344004715531525,0.344);
#15=CYLINDRICAL_SURFACE('',#257,0.344);
#16=CYLINDRICAL_SURFACE('',#261,0.37475);
#17=LINE('',#407,#29);
#18=LINE('',#409,#30);
#19=LINE('',#410,#31);
#20=LINE('',#413,#32);
#21=LINE('',#415,#33);
#22=LINE('',#416,#34);
#23=LINE('',#421,#35);
#24=LINE('',#423,#36);
#25=LINE('',#431,#37);
#26=LINE('',#445,#38);
#27=LINE('',#446,#39);
#28=LINE('',#448,#40);
#29=VECTOR('',#293,0.35);
#30=VECTOR('',#294,0.377);
#31=VECTOR('',#295,0.393700787401575);
#32=VECTOR('',#298,0.393700787401575);
#33=VECTOR('',#299,0.35);
#34=VECTOR('',#300,0.393700787401575);
#35=VECTOR('',#305,0.344);
#36=VECTOR('',#306,0.393700787401575);
#37=VECTOR('',#315,0.37475);
#38=VECTOR('',#336,0.393700787401575);
#39=VECTOR('',#337,0.35);
#40=VECTOR('',#340,0.350817402607674);
#41=PLANE('',#254);
#42=PLANE('',#255);
#43=PLANE('',#256);
#44=PLANE('',#266);
#45=PLANE('',#272);
#46=PLANE('',#273);
#47=PLANE('',#274);
#48=STYLED_ITEM('',(#474),#215);
#49=STYLED_ITEM('',(#475),#216);
#50=STYLED_ITEM('',(#475),#217);
#51=STYLED_ITEM('',(#474),#218);
#52=STYLED_ITEM('',(#474),#219);
#53=STYLED_ITEM('',(#474),#220);
#54=STYLED_ITEM('',(#474),#221);
#55=STYLED_ITEM('',(#474),#222);
#56=STYLED_ITEM('',(#475),#223);
#57=STYLED_ITEM('',(#475),#224);
#58=STYLED_ITEM('',(#475),#225);
#59=STYLED_ITEM('',(#473),#13);
#60=FACE_OUTER_BOUND('',#72,.T.);
#61=FACE_OUTER_BOUND('',#73,.T.);
#62=FACE_OUTER_BOUND('',#74,.T.);
#63=FACE_OUTER_BOUND('',#75,.T.);
#64=FACE_OUTER_BOUND('',#76,.T.);
#65=FACE_OUTER_BOUND('',#77,.T.);
#66=FACE_OUTER_BOUND('',#78,.T.);
#67=FACE_OUTER_BOUND('',#79,.T.);
#68=FACE_OUTER_BOUND('',#80,.T.);
#69=FACE_OUTER_BOUND('',#81,.T.);
#70=FACE_OUTER_BOUND('',#82,.T.);
#71=FACE_OUTER_BOUND('',#83,.T.);
#72=EDGE_LOOP('',(#151,#152,#153,#154,#155,#156,#157,#158,#159));
#73=EDGE_LOOP('',(#160));
#74=EDGE_LOOP('',(#161,#162,#163,#164));
#75=EDGE_LOOP('',(#165,#166,#167,#168,#169));
#76=EDGE_LOOP('',(#170,#171,#172,#173,#174,#175,#176,#177,#178,#179));
#77=EDGE_LOOP('',(#180,#181,#182,#183,#184,#185));
#78=EDGE_LOOP('',(#186));
#79=EDGE_LOOP('',(#187,#188,#189,#190,#191,#192));
#80=EDGE_LOOP('',(#193,#194,#195,#196,#197));
#81=EDGE_LOOP('',(#198,#199,#200,#201,#202));
#82=EDGE_LOOP('',(#203,#204,#205,#206));
#83=EDGE_LOOP('',(#207,#208,#209,#210));
#84=B_SPLINE_CURVE_WITH_KNOTS('',3,(#352,#353,#354,#355,#356,#357,#358,
#359,#360,#361),.UNSPECIFIED.,.F.,.F.,(4,2,2,2,4),(0.201486973730807,0.206643030659349,
0.222993523462874,0.237568835732632,0.250860598761177),.UNSPECIFIED.);
#85=B_SPLINE_CURVE_WITH_KNOTS('',3,(#363,#364,#365,#366,#367,#368,#369,
#370,#371,#372,#373,#374,#375,#376,#377,#378,#379,#380,#381,#382,#383,#384,
#385,#386,#387,#388,#389),.UNSPECIFIED.,.F.,.F.,(4,2,2,2,2,2,3,2,2,2,2,
2,4),(-0.48530106098953,-0.453236632773638,-0.414180151171686,-0.310635113378765,
-0.207090075585843,-0.103545037792922,0.,0.103545037792922,0.207090075585843,
0.310635113378765,0.414180151171686,0.453236632773638,0.479643979035768),
 .UNSPECIFIED.);
#86=B_SPLINE_CURVE_WITH_KNOTS('',3,(#391,#392,#393,#394,#395,#396,#397,
#398,#399,#400),.UNSPECIFIED.,.F.,.F.,(4,2,2,2,4),(0.,0.0132708165395416,
0.0278586335723851,0.0442720240006398,0.0495531031705651),.UNSPECIFIED.);
#87=CIRCLE('',#249,0.329);
#88=CIRCLE('',#250,0.015);
#89=CIRCLE('',#251,0.344);
#90=CIRCLE('',#252,0.344);
#91=CIRCLE('',#253,0.344);
#92=CIRCLE('',#258,0.344);
#93=CIRCLE('',#260,0.344);
#94=CIRCLE('',#262,0.37475);
#95=CIRCLE('',#263,0.37475);
#96=CIRCLE('',#264,0.37475);
#97=CIRCLE('',#265,0.37475);
#98=CIRCLE('',#267,0.34475);
#99=CIRCLE('',#269,0.06);
#100=CIRCLE('',#271,0.0300000000000001);
#101=VERTEX_POINT('',#345);
#102=VERTEX_POINT('',#347);
#103=VERTEX_POINT('',#349);
#104=VERTEX_POINT('',#351);
#105=VERTEX_POINT('',#362);
#106=VERTEX_POINT('',#390);
#107=VERTEX_POINT('',#401);
#108=VERTEX_POINT('',#406);
#109=VERTEX_POINT('',#408);
#110=VERTEX_POINT('',#412);
#111=VERTEX_POINT('',#414);
#112=VERTEX_POINT('',#418);
#113=VERTEX_POINT('',#419);
#114=VERTEX_POINT('',#422);
#115=VERTEX_POINT('',#427);
#116=VERTEX_POINT('',#428);
#117=VERTEX_POINT('',#430);
#118=VERTEX_POINT('',#432);
#119=VERTEX_POINT('',#437);
#120=VERTEX_POINT('',#444);
#121=EDGE_CURVE('',#101,#101,#87,.T.);
#122=EDGE_CURVE('',#101,#102,#88,.T.);
#123=EDGE_CURVE('',#102,#103,#89,.T.);
#124=EDGE_CURVE('',#104,#103,#84,.T.);
#125=EDGE_CURVE('',#104,#105,#85,.F.);
#126=EDGE_CURVE('',#106,#105,#86,.T.);
#127=EDGE_CURVE('',#106,#107,#90,.T.);
#128=EDGE_CURVE('',#107,#102,#91,.T.);
#129=EDGE_CURVE('',#104,#108,#17,.T.);
#130=EDGE_CURVE('',#109,#108,#18,.T.);
#131=EDGE_CURVE('',#105,#109,#19,.F.);
#132=EDGE_CURVE('',#103,#110,#20,.T.);
#133=EDGE_CURVE('',#111,#110,#21,.T.);
#134=EDGE_CURVE('',#108,#111,#22,.T.);
#135=EDGE_CURVE('',#112,#113,#92,.T.);
#136=EDGE_CURVE('',#112,#107,#23,.T.);
#137=EDGE_CURVE('',#114,#106,#24,.T.);
#138=EDGE_CURVE('',#110,#114,#14,.T.);
#139=EDGE_CURVE('',#113,#112,#93,.T.);
#140=EDGE_CURVE('',#115,#116,#94,.T.);
#141=EDGE_CURVE('',#115,#117,#25,.T.);
#142=EDGE_CURVE('',#117,#118,#95,.T.);
#143=EDGE_CURVE('',#118,#117,#96,.T.);
#144=EDGE_CURVE('',#116,#115,#97,.T.);
#145=EDGE_CURVE('',#119,#119,#98,.T.);
#146=EDGE_CURVE('',#113,#118,#99,.T.);
#147=EDGE_CURVE('',#119,#116,#100,.T.);
#148=EDGE_CURVE('',#120,#109,#26,.T.);
#149=EDGE_CURVE('',#120,#114,#27,.T.);
#150=EDGE_CURVE('',#120,#111,#28,.T.);
#151=ORIENTED_EDGE('',*,*,#121,.T.);
#152=ORIENTED_EDGE('',*,*,#122,.T.);
#153=ORIENTED_EDGE('',*,*,#123,.T.);
#154=ORIENTED_EDGE('',*,*,#124,.F.);
#155=ORIENTED_EDGE('',*,*,#125,.T.);
#156=ORIENTED_EDGE('',*,*,#126,.F.);
#157=ORIENTED_EDGE('',*,*,#127,.T.);
#158=ORIENTED_EDGE('',*,*,#128,.T.);
#159=ORIENTED_EDGE('',*,*,#122,.F.);
#160=ORIENTED_EDGE('',*,*,#121,.F.);
#161=ORIENTED_EDGE('',*,*,#129,.T.);
#162=ORIENTED_EDGE('',*,*,#130,.F.);
#163=ORIENTED_EDGE('',*,*,#131,.F.);
#164=ORIENTED_EDGE('',*,*,#125,.F.);
#165=ORIENTED_EDGE('',*,*,#132,.T.);
#166=ORIENTED_EDGE('',*,*,#133,.F.);
#167=ORIENTED_EDGE('',*,*,#134,.F.);
#168=ORIENTED_EDGE('',*,*,#129,.F.);
#169=ORIENTED_EDGE('',*,*,#124,.T.);
#170=ORIENTED_EDGE('',*,*,#135,.F.);
#171=ORIENTED_EDGE('',*,*,#136,.T.);
#172=ORIENTED_EDGE('',*,*,#127,.F.);
#173=ORIENTED_EDGE('',*,*,#137,.F.);
#174=ORIENTED_EDGE('',*,*,#138,.F.);
#175=ORIENTED_EDGE('',*,*,#132,.F.);
#176=ORIENTED_EDGE('',*,*,#123,.F.);
#177=ORIENTED_EDGE('',*,*,#128,.F.);
#178=ORIENTED_EDGE('',*,*,#136,.F.);
#179=ORIENTED_EDGE('',*,*,#139,.F.);
#180=ORIENTED_EDGE('',*,*,#140,.F.);
#181=ORIENTED_EDGE('',*,*,#141,.T.);
#182=ORIENTED_EDGE('',*,*,#142,.T.);
#183=ORIENTED_EDGE('',*,*,#143,.T.);
#184=ORIENTED_EDGE('',*,*,#141,.F.);
#185=ORIENTED_EDGE('',*,*,#144,.F.);
#186=ORIENTED_EDGE('',*,*,#145,.T.);
#187=ORIENTED_EDGE('',*,*,#135,.T.);
#188=ORIENTED_EDGE('',*,*,#146,.T.);
#189=ORIENTED_EDGE('',*,*,#142,.F.);
#190=ORIENTED_EDGE('',*,*,#143,.F.);
#191=ORIENTED_EDGE('',*,*,#146,.F.);
#192=ORIENTED_EDGE('',*,*,#139,.T.);
#193=ORIENTED_EDGE('',*,*,#145,.F.);
#194=ORIENTED_EDGE('',*,*,#147,.T.);
#195=ORIENTED_EDGE('',*,*,#144,.T.);
#196=ORIENTED_EDGE('',*,*,#140,.T.);
#197=ORIENTED_EDGE('',*,*,#147,.F.);
#198=ORIENTED_EDGE('',*,*,#137,.T.);
#199=ORIENTED_EDGE('',*,*,#126,.T.);
#200=ORIENTED_EDGE('',*,*,#131,.T.);
#201=ORIENTED_EDGE('',*,*,#148,.F.);
#202=ORIENTED_EDGE('',*,*,#149,.T.);
#203=ORIENTED_EDGE('',*,*,#148,.T.);
#204=ORIENTED_EDGE('',*,*,#130,.T.);
#205=ORIENTED_EDGE('',*,*,#134,.T.);
#206=ORIENTED_EDGE('',*,*,#150,.F.);
#207=ORIENTED_EDGE('',*,*,#138,.T.);
#208=ORIENTED_EDGE('',*,*,#149,.F.);
#209=ORIENTED_EDGE('',*,*,#150,.T.);
#210=ORIENTED_EDGE('',*,*,#133,.T.);
#211=TOROIDAL_SURFACE('',#248,0.329,0.015);
#212=TOROIDAL_SURFACE('',#268,0.404,0.06);
#213=TOROIDAL_SURFACE('',#270,0.34475,0.0300000000000001);
#214=ADVANCED_FACE('',(#60),#211,.T.);
#215=ADVANCED_FACE('',(#61),#41,.T.);
#216=ADVANCED_FACE('',(#62),#42,.F.);
#217=ADVANCED_FACE('',(#63),#43,.F.);
#218=ADVANCED_FACE('',(#64),#15,.T.);
#219=ADVANCED_FACE('',(#65),#16,.T.);
#220=ADVANCED_FACE('',(#66),#44,.T.);
#221=ADVANCED_FACE('',(#67),#212,.F.);
#222=ADVANCED_FACE('',(#68),#213,.T.);
#223=ADVANCED_FACE('',(#69),#45,.T.);
#224=ADVANCED_FACE('',(#70),#46,.F.);
#225=ADVANCED_FACE('',(#71),#47,.F.);
#226=CLOSED_SHELL('',(#214,#215,#216,#217,#218,#219,#220,#221,#222,#223,
#224,#225));
#227=DERIVED_UNIT_ELEMENT(#229,1.);
#228=DERIVED_UNIT_ELEMENT(#458,-3.);
#229=(
CONVERSION_BASED_UNIT('gram',#231)
MASS_UNIT()
NAMED_UNIT(#455)
);
#230=(
MASS_UNIT()
NAMED_UNIT(*)
SI_UNIT(.KILO.,.GRAM.)
);
#231=MASS_MEASURE_WITH_UNIT(MASS_MEASURE(0.001),#230);
#232=DERIVED_UNIT((#227,#228));
#233=MEASURE_REPRESENTATION_ITEM('density measure',
POSITIVE_RATIO_MEASURE(1.),#232);
#234=PROPERTY_DEFINITION_REPRESENTATION(#239,#236);
#235=PROPERTY_DEFINITION_REPRESENTATION(#240,#237);
#236=REPRESENTATION('material name',(#238),#452);
#237=REPRESENTATION('density',(#233),#452);
#238=DESCRIPTIVE_REPRESENTATION_ITEM('Generic','Generic');
#239=PROPERTY_DEFINITION('material property','material name',#466);
#240=PROPERTY_DEFINITION('material property','density of part',#466);
#241=DATE_TIME_ROLE('creation_date');
#242=APPLIED_DATE_AND_TIME_ASSIGNMENT(#243,#241,(#466));
#243=DATE_AND_TIME(#244,#245);
#244=CALENDAR_DATE(2024,2,5);
#245=LOCAL_TIME(0,0,0.,#246);
#246=COORDINATED_UNIVERSAL_TIME_OFFSET(0,0,.BEHIND.);
#247=AXIS2_PLACEMENT_3D('',#343,#275,#276);
#248=AXIS2_PLACEMENT_3D('',#344,#277,#278);
#249=AXIS2_PLACEMENT_3D('',#346,#279,#280);
#250=AXIS2_PLACEMENT_3D('',#348,#281,#282);
#251=AXIS2_PLACEMENT_3D('',#350,#283,#284);
#252=AXIS2_PLACEMENT_3D('',#402,#285,#286);
#253=AXIS2_PLACEMENT_3D('',#403,#287,#288);
#254=AXIS2_PLACEMENT_3D('',#404,#289,#290);
#255=AXIS2_PLACEMENT_3D('',#405,#291,#292);
#256=AXIS2_PLACEMENT_3D('',#411,#296,#297);
#257=AXIS2_PLACEMENT_3D('',#417,#301,#302);
#258=AXIS2_PLACEMENT_3D('',#420,#303,#304);
#259=AXIS2_PLACEMENT_3D('',#424,#307,#308);
#260=AXIS2_PLACEMENT_3D('',#425,#309,#310);
#261=AXIS2_PLACEMENT_3D('',#426,#311,#312);
#262=AXIS2_PLACEMENT_3D('',#429,#313,#314);
#263=AXIS2_PLACEMENT_3D('',#433,#316,#317);
#264=AXIS2_PLACEMENT_3D('',#434,#318,#319);
#265=AXIS2_PLACEMENT_3D('',#435,#320,#321);
#266=AXIS2_PLACEMENT_3D('',#436,#322,#323);
#267=AXIS2_PLACEMENT_3D('',#438,#324,#325);
#268=AXIS2_PLACEMENT_3D('',#439,#326,#327);
#269=AXIS2_PLACEMENT_3D('',#440,#328,#329);
#270=AXIS2_PLACEMENT_3D('',#441,#330,#331);
#271=AXIS2_PLACEMENT_3D('',#442,#332,#333);
#272=AXIS2_PLACEMENT_3D('',#443,#334,#335);
#273=AXIS2_PLACEMENT_3D('',#447,#338,#339);
#274=AXIS2_PLACEMENT_3D('',#449,#341,#342);
#275=DIRECTION('axis',(0.,0.,1.));
#276=DIRECTION('refdir',(1.,0.,0.));
#277=DIRECTION('center_axis',(-1.41745274845449E-15,-1.,1.18329135783152E-29));
#278=DIRECTION('ref_axis',(0.,0.,-1.));
#279=DIRECTION('center_axis',(1.41745274845449E-15,1.,-1.18329135783152E-29));
#280=DIRECTION('ref_axis',(-1.,1.41745274845449E-15,1.22595649424976E-16));
#281=DIRECTION('center_axis',(-1.,1.41745274845449E-15,-1.22464679914736E-16));
#282=DIRECTION('ref_axis',(-1.22464679914736E-16,0.,1.));
#283=DIRECTION('center_axis',(-1.41745274845449E-15,-1.,1.18329135783152E-29));
#284=DIRECTION('ref_axis',(-1.,1.41357250834953E-15,1.22595649424976E-16));
#285=DIRECTION('center_axis',(-1.41745274845449E-15,-1.,1.18329135783152E-29));
#286=DIRECTION('ref_axis',(-1.,1.41357250834953E-15,1.22595649424976E-16));
#287=DIRECTION('center_axis',(-1.41745274845449E-15,-1.,1.18329135783152E-29));
#288=DIRECTION('ref_axis',(-1.,1.41357250834953E-15,1.22595649424976E-16));
#289=DIRECTION('center_axis',(-1.41745274845449E-15,-1.,1.18329135783152E-29));
#290=DIRECTION('ref_axis',(9.1373417057829E-31,1.18329135783152E-29,1.));
#291=DIRECTION('center_axis',(0.00523596383142682,0.999986292247427,-7.39803607427914E-19));
#292=DIRECTION('ref_axis',(-5.26003044651289E-18,7.67355455316777E-19,1.));
#293=DIRECTION('',(-0.999986292247427,0.00523596383142686,-5.26397618872689E-18));
#294=DIRECTION('',(-5.26003044651289E-18,7.67355455316777E-19,1.));
#295=DIRECTION('',(0.999986292247427,-0.00523596383142682,5.26397618872689E-18));
#296=DIRECTION('center_axis',(5.26003044651289E-18,-7.67355455316777E-19,
-1.));
#297=DIRECTION('ref_axis',(0.999986292247427,-0.00523596383142661,5.26397618872689E-18));
#298=DIRECTION('',(1.3987061727561E-15,1.,0.));
#299=DIRECTION('',(0.999986292247427,-0.00523596383142672,5.26397618872689E-18));
#300=DIRECTION('',(0.144356201000973,0.989525789068969,-1.06566518647807E-29));
#301=DIRECTION('center_axis',(1.41745274845449E-15,1.,-1.18329135783152E-29));
#302=DIRECTION('ref_axis',(-1.,1.41710679477044E-15,9.13734170578274E-31));
#303=DIRECTION('center_axis',(1.41745274845449E-15,1.,-1.18329135783152E-29));
#304=DIRECTION('ref_axis',(-9.1373417057829E-31,-1.18329135783152E-29,-1.));
#305=DIRECTION('',(-1.41745274845449E-15,-1.,1.18329135783152E-29));
#306=DIRECTION('',(-1.41745274845449E-15,-1.,1.18329135783152E-29));
#307=DIRECTION('center_axis',(-0.00523596383142672,-0.999986292247427,7.39803607427915E-19));
#308=DIRECTION('ref_axis',(-0.999986292247427,0.00523596383142672,8.51764937819906E-31));
#309=DIRECTION('center_axis',(1.41745274845449E-15,1.,-1.18329135783152E-29));
#310=DIRECTION('ref_axis',(-9.1373417057829E-31,-1.18329135783152E-29,-1.));
#311=DIRECTION('center_axis',(1.41745274845449E-15,1.,-1.18329135783152E-29));
#312=DIRECTION('ref_axis',(-1.,1.41710679477044E-15,9.13734170578274E-31));
#313=DIRECTION('center_axis',(1.41745274845449E-15,1.,-1.18329135783152E-29));
#314=DIRECTION('ref_axis',(-9.1373417057829E-31,-1.18329135783152E-29,-1.));
#315=DIRECTION('',(-1.41745274845449E-15,-1.,1.18329135783152E-29));
#316=DIRECTION('center_axis',(1.41745274845449E-15,1.,-1.18329135783152E-29));
#317=DIRECTION('ref_axis',(-9.1373417057829E-31,-1.18329135783152E-29,-1.));
#318=DIRECTION('center_axis',(1.41745274845449E-15,1.,-1.18329135783152E-29));
#319=DIRECTION('ref_axis',(-9.1373417057829E-31,-1.18329135783152E-29,-1.));
#320=DIRECTION('center_axis',(1.41745274845449E-15,1.,-1.18329135783152E-29));
#321=DIRECTION('ref_axis',(-9.1373417057829E-31,-1.18329135783152E-29,-1.));
#322=DIRECTION('center_axis',(1.41745274845449E-15,1.,-1.18329135783152E-29));
#323=DIRECTION('ref_axis',(-9.1373417057829E-31,-1.18329135783152E-29,-1.));
#324=DIRECTION('center_axis',(1.41745274845449E-15,1.,-1.18329135783152E-29));
#325=DIRECTION('ref_axis',(-9.1373417057829E-31,-1.18329135783152E-29,-1.));
#326=DIRECTION('center_axis',(1.41745274845449E-15,1.,-1.18329135783152E-29));
#327=DIRECTION('ref_axis',(-8.5006563062609E-31,0.,-1.));
#328=DIRECTION('center_axis',(1.,-1.41745274845449E-15,-1.22464679914736E-16));
#329=DIRECTION('ref_axis',(1.22464679914737E-16,0.,1.));
#330=DIRECTION('center_axis',(1.41745274845449E-15,1.,-1.18329135783152E-29));
#331=DIRECTION('ref_axis',(-9.04506124648842E-31,0.,-1.));
#332=DIRECTION('center_axis',(1.,-1.41745274845449E-15,-1.22464679914736E-16));
#333=DIRECTION('ref_axis',(1.22464679914736E-16,0.,1.));
#334=DIRECTION('center_axis',(5.26003044651289E-18,-7.67355455316777E-19,
-1.));
#335=DIRECTION('ref_axis',(0.999986292247427,-0.00523596383142661,5.26397618872689E-18));
#336=DIRECTION('',(-0.144356201000973,-0.989525789068969,1.06566518647807E-29));
#337=DIRECTION('',(0.999986292247427,-0.00523596383142672,5.26397618872689E-18));
#338=DIRECTION('center_axis',(0.989525789068969,-0.144356201000973,5.31570829645938E-18));
#339=DIRECTION('ref_axis',(-5.26003044651289E-18,7.67355455316777E-19,1.));
#340=DIRECTION('',(-5.26003044651289E-18,7.67355455316777E-19,1.));
#341=DIRECTION('center_axis',(-0.00523596383142672,-0.999986292247427,7.39803607427915E-19));
#342=DIRECTION('ref_axis',(5.26003044651289E-18,-7.67355455316777E-19,-1.));
#343=CARTESIAN_POINT('',(0.,0.,0.));
#344=CARTESIAN_POINT('Origin',(-7.06600195104564E-15,0.014999999999996,
0.000999999999999951));
#345=CARTESIAN_POINT('',(-7.12755462196441E-15,-3.96391143880684E-15,0.33));
#346=CARTESIAN_POINT('Origin',(-7.08726374227246E-15,-3.96391143880685E-15,
0.000999999999999951));
#347=CARTESIAN_POINT('',(-7.10812980093631E-15,0.014999999999996,0.345));
#348=CARTESIAN_POINT('Origin',(-7.10629283073759E-15,0.014999999999996,
0.33));
#349=CARTESIAN_POINT('',(-0.288408997779202,0.0149999999999964,0.1885));
#350=CARTESIAN_POINT('Origin',(-7.06600195104564E-15,0.014999999999996,
0.000999999999999951));
#351=CARTESIAN_POINT('',(-0.275756976735255,0.000679603266718003,0.1885));
#352=CARTESIAN_POINT('Ctrl Pts',(-0.275756976735116,0.000679603267273923,
0.1885));
#353=CARTESIAN_POINT('Ctrl Pts',(-0.276460962054264,0.000861070790189874,
0.1885));
#354=CARTESIAN_POINT('Ctrl Pts',(-0.277140573542529,0.00107614501308182,
0.1885));
#355=CARTESIAN_POINT('Ctrl Pts',(-0.279786323574447,0.00205891970841942,
0.1885));
#356=CARTESIAN_POINT('Ctrl Pts',(-0.282011998396991,0.00335367161294953,
0.1885));
#357=CARTESIAN_POINT('Ctrl Pts',(-0.285032752551306,0.00606411510988529,
0.1885));
#358=CARTESIAN_POINT('Ctrl Pts',(-0.286424969688569,0.00788901160783079,
0.1885));
#359=CARTESIAN_POINT('Ctrl Pts',(-0.287947996150696,0.0112138793007696,
0.1885));
#360=CARTESIAN_POINT('Ctrl Pts',(-0.288408997779203,0.0132556741432319,
0.1885));
#361=CARTESIAN_POINT('Ctrl Pts',(-0.288408997779203,0.0149999999999964,
0.1885));
#362=CARTESIAN_POINT('',(-0.274357778120125,0.000672277012358717,-0.188499999999997));
#363=CARTESIAN_POINT('Ctrl Pts',(-0.274357778120123,0.000672277012358708,
-0.188499999999996));
#364=CARTESIAN_POINT('Ctrl Pts',(-0.277017369306497,0.000686202726507188,
-0.184728514483046));
#365=CARTESIAN_POINT('Ctrl Pts',(-0.279587638139153,0.000699660745631213,
-0.180912125202812));
#366=CARTESIAN_POINT('Ctrl Pts',(-0.285011471554546,0.000728060130513635,
-0.172490214322414));
#367=CARTESIAN_POINT('Ctrl Pts',(-0.287804169081393,0.000742682794200178,
-0.167893779002337));
#368=CARTESIAN_POINT('Ctrl Pts',(-0.297155533999735,0.000791646873874579,
-0.151683674263501));
#369=CARTESIAN_POINT('Ctrl Pts',(-0.303494805583709,0.000824839525602518,
-0.138975195147662));
#370=CARTESIAN_POINT('Ctrl Pts',(-0.314602425080685,0.000882999416783332,
-0.112303233851189));
#371=CARTESIAN_POINT('Ctrl Pts',(-0.319370657122538,0.000907966049530749,
-0.098339703414486));
#372=CARTESIAN_POINT('Ctrl Pts',(-0.326971636122271,0.000947765046211585,
-0.0699056733126467));
#373=CARTESIAN_POINT('Ctrl Pts',(-0.329807222751934,0.000962612278767567,
-0.0554245677383045));
#374=CARTESIAN_POINT('Ctrl Pts',(-0.333496154476335,0.000981927656623554,
-0.0267660142161201));
#375=CARTESIAN_POINT('Ctrl Pts',(-0.334349665572802,0.000986396671114523,
-0.0125885876368664));
#376=CARTESIAN_POINT('Ctrl Pts',(-0.334349665572802,0.000986396671114523,
0.000999999999999998));
#377=CARTESIAN_POINT('Ctrl Pts',(-0.334349665572802,0.000986396671114523,
0.0145885876368663));
#378=CARTESIAN_POINT('Ctrl Pts',(-0.333496154476335,0.000981927656623553,
0.0287660142161201));
#379=CARTESIAN_POINT('Ctrl Pts',(-0.329807222751934,0.000962612278767566,
0.0574245677383045));
#380=CARTESIAN_POINT('Ctrl Pts',(-0.326971636122271,0.000947765046211585,
0.0719056733126467));
#381=CARTESIAN_POINT('Ctrl Pts',(-0.319370657122538,0.000907966049530749,
0.100339703414486));
#382=CARTESIAN_POINT('Ctrl Pts',(-0.314602425080685,0.000882999416783332,
0.114303233851189));
#383=CARTESIAN_POINT('Ctrl Pts',(-0.303494805583709,0.000824839525602518,
0.140975195147663));
#384=CARTESIAN_POINT('Ctrl Pts',(-0.297155533999735,0.000791646873874579,
0.153683674263501));
#385=CARTESIAN_POINT('Ctrl Pts',(-0.287804169081393,0.000742682794200178,
0.169893779002337));
#386=CARTESIAN_POINT('Ctrl Pts',(-0.285011471554546,0.000728060130513636,
0.174490214322414));
#387=CARTESIAN_POINT('Ctrl Pts',(-0.280019059365527,0.000701919682533565,
0.182242231634525));
#388=CARTESIAN_POINT('Ctrl Pts',(-0.27792059263755,0.000690932036028487,
0.185382597433707));
#389=CARTESIAN_POINT('Ctrl Pts',(-0.275756976732095,0.000679603266110447,
0.188499999997805));
#390=CARTESIAN_POINT('',(-0.287098850572419,0.0149999999999963,-0.1885));
#391=CARTESIAN_POINT('Ctrl Pts',(-0.287098850572419,0.0149999999999964,
-0.1885));
#392=CARTESIAN_POINT('Ctrl Pts',(-0.287098850572419,0.0132584230263033,
-0.1885));
#393=CARTESIAN_POINT('Ctrl Pts',(-0.286637160168794,0.0112201659073828,
-0.1885));
#394=CARTESIAN_POINT('Ctrl Pts',(-0.285111373152672,0.00789778317094982,
-0.1885));
#395=CARTESIAN_POINT('Ctrl Pts',(-0.283714953554782,0.00607361976676035,
-0.1885));
#396=CARTESIAN_POINT('Ctrl Pts',(-0.280683056157551,0.00336078432073465,
-0.1885));
#397=CARTESIAN_POINT('Ctrl Pts',(-0.278446784344069,0.00206455652626684,
-0.1885));
#398=CARTESIAN_POINT('Ctrl Pts',(-0.275776990638326,0.00107569007373874,
-0.1885));
#399=CARTESIAN_POINT('Ctrl Pts',(-0.275079868041601,0.000856407874431657,
-0.1885));
#400=CARTESIAN_POINT('Ctrl Pts',(-0.274357778120125,0.000672277012359828,
-0.1885));
#401=CARTESIAN_POINT('',(0.343999999999993,0.0149999999999956,0.000999999999999909));
#402=CARTESIAN_POINT('Origin',(-7.06600195104564E-15,0.014999999999996,
0.000999999999999951));
#403=CARTESIAN_POINT('Origin',(-7.06600195104564E-15,0.014999999999996,
0.000999999999999951));
#404=CARTESIAN_POINT('Origin',(-0.329000000000007,-3.49676543189026E-15,
0.000999999999999951));
#405=CARTESIAN_POINT('Origin',(0.0807209951050506,-0.00118692808707919,
-0.1885));
#406=CARTESIAN_POINT('',(-0.563864542927973,0.00218814474098568,0.1885));
#407=CARTESIAN_POINT('',(-0.0138720821918878,-0.000691635366299026,0.1885));
#408=CARTESIAN_POINT('',(-0.563864542927973,0.00218814474098568,-0.1885));
#409=CARTESIAN_POINT('',(-0.563864542927973,0.00218814474098568,-0.1885));
#410=CARTESIAN_POINT('',(-0.241571773911461,0.000500608326953281,-0.1885));
#411=CARTESIAN_POINT('Origin',(-0.563864542927973,0.00218814474098568,0.1885));
#412=CARTESIAN_POINT('',(-0.288408997779201,0.750756130654156,0.1885));
#413=CARTESIAN_POINT('',(-0.288408997779202,-3.55975888564681E-15,0.1885));
#414=CARTESIAN_POINT('',(-0.454533388901856,0.75162596388105,0.1885));
#415=CARTESIAN_POINT('',(-0.359940311604917,0.75113067116027,0.1885));
#416=CARTESIAN_POINT('',(-0.563864542927973,0.00218814474098568,0.1885));
#417=CARTESIAN_POINT('Origin',(-4.98758204129675E-15,1.48130631039735,0.000999999999999951));
#418=CARTESIAN_POINT('',(0.343999999999997,2.94761262079469,0.000999999999999909));
#419=CARTESIAN_POINT('',(-2.8670342816572E-15,2.94761262079469,0.345));
#420=CARTESIAN_POINT('Origin',(-2.90916213154787E-15,2.94761262079469,0.000999999999999951));
#421=CARTESIAN_POINT('',(0.343999999999995,1.48130631039734,0.000999999999999909));
#422=CARTESIAN_POINT('',(-0.287098850572418,0.750749270676732,-0.1885));
#423=CARTESIAN_POINT('',(-0.287098850572417,1.48130631039735,-0.1885));
#424=CARTESIAN_POINT('Origin',(-6.02524292489227E-15,0.749246010872778,
0.000999999999999951));
#425=CARTESIAN_POINT('Origin',(-2.90916213154787E-15,2.94761262079469,0.000999999999999951));
#426=CARTESIAN_POINT('Origin',(-1.43871453968131E-15,3.985,0.000999999999999951));
#427=CARTESIAN_POINT('',(0.37475,4.96999999999999,0.000999999999999905));
#428=CARTESIAN_POINT('',(3.37005634441253E-18,4.97,0.37575));
#429=CARTESIAN_POINT('Origin',(-4.25235824536347E-17,4.97,0.000999999999999951));
#430=CARTESIAN_POINT('',(0.374749999999997,2.99999999999999,0.000999999999999905));
#431=CARTESIAN_POINT('',(0.374749999999999,3.98499999999999,0.000999999999999905));
#432=CARTESIAN_POINT('',(-2.78901185811094E-15,3.,0.37575));
#433=CARTESIAN_POINT('Origin',(-2.83490549690898E-15,3.,0.000999999999999951));
#434=CARTESIAN_POINT('Origin',(-2.83490549690898E-15,3.,0.000999999999999951));
#435=CARTESIAN_POINT('Origin',(-4.25235824536347E-17,4.97,0.000999999999999951));
#436=CARTESIAN_POINT('Origin',(0.,4.99999999999999,0.000999999999999951));
#437=CARTESIAN_POINT('',(4.22196984006052E-17,4.99999999999999,0.34575));
#438=CARTESIAN_POINT('Origin',(7.35540321526435E-32,4.99999999999999,0.000999999999999951));
#439=CARTESIAN_POINT('Origin',(-2.90916213154787E-15,2.94761262079469,0.000999999999999951));
#440=CARTESIAN_POINT('Origin',(-2.85968640086231E-15,2.94761262079469,0.405));
#441=CARTESIAN_POINT('Origin',(-4.25235824536349E-17,4.97,0.000999999999999951));
#442=CARTESIAN_POINT('Origin',(-3.03884053029572E-19,4.97,0.34575));
#443=CARTESIAN_POINT('Origin',(-0.563864542927973,0.00218814474098568,-0.1885));
#444=CARTESIAN_POINT('',(-0.454533388901856,0.75162596388105,-0.1885));
#445=CARTESIAN_POINT('',(-0.563864542927973,0.00218814474098568,-0.1885));
#446=CARTESIAN_POINT('',(-0.359940311604917,0.75113067116027,-0.1885));
#447=CARTESIAN_POINT('Origin',(-0.563864542927973,0.00218814474098568,-0.1885));
#448=CARTESIAN_POINT('',(-0.454533388901856,0.75162596388105,-0.175408701303837));
#449=CARTESIAN_POINT('Origin',(-0.454533388901856,0.75162596388105,-0.1885));
#450=UNCERTAINTY_MEASURE_WITH_UNIT(LENGTH_MEASURE(0.000393700787401575),
#456,'DISTANCE_ACCURACY_VALUE',
'Maximum model space distance between geometric entities at asserted c
onnectivities');
#451=UNCERTAINTY_MEASURE_WITH_UNIT(LENGTH_MEASURE(0.000393700787401575),
#456,'DISTANCE_ACCURACY_VALUE',
'Maximum model space distance between geometric entities at asserted c
onnectivities');
#452=(
GEOMETRIC_REPRESENTATION_CONTEXT(3)
GLOBAL_UNCERTAINTY_ASSIGNED_CONTEXT((#450))
GLOBAL_UNIT_ASSIGNED_CONTEXT((#456,#460,#461))
REPRESENTATION_CONTEXT('','3D')
);
#453=(
GEOMETRIC_REPRESENTATION_CONTEXT(3)
GLOBAL_UNCERTAINTY_ASSIGNED_CONTEXT((#451))
GLOBAL_UNIT_ASSIGNED_CONTEXT((#456,#460,#461))
REPRESENTATION_CONTEXT('','3D')
);
#454=DIMENSIONAL_EXPONENTS(1.,0.,0.,0.,0.,0.,0.);
#455=DIMENSIONAL_EXPONENTS(0.,1.,0.,0.,0.,0.,0.);
#456=(
CONVERSION_BASED_UNIT('inch',#459)
LENGTH_UNIT()
NAMED_UNIT(#454)
);
#457=(
LENGTH_UNIT()
NAMED_UNIT(*)
SI_UNIT(.MILLI.,.METRE.)
);
#458=(
LENGTH_UNIT()
NAMED_UNIT(*)
SI_UNIT(.CENTI.,.METRE.)
);
#459=LENGTH_MEASURE_WITH_UNIT(LENGTH_MEASURE(25.4),#457);
#460=(
NAMED_UNIT(*)
PLANE_ANGLE_UNIT()
SI_UNIT($,.RADIAN.)
);
#461=(
NAMED_UNIT(*)
SI_UNIT($,.STERADIAN.)
SOLID_ANGLE_UNIT()
);
#462=SHAPE_DEFINITION_REPRESENTATION(#463,#464);
#463=PRODUCT_DEFINITION_SHAPE('',$,#466);
#464=SHAPE_REPRESENTATION('',(#247),#452);
#465=PRODUCT_DEFINITION_CONTEXT('part definition',#470,'design');
#466=PRODUCT_DEFINITION('T38SM Broach Assy_Simplify_1',
'T38SM Broach Assy_Simplify_1',#467,#465);
#467=PRODUCT_DEFINITION_FORMATION('',$,#472);
#468=PRODUCT_RELATED_PRODUCT_CATEGORY('T38SM Broach Assy_Simplify_1',
'T38SM Broach Assy_Simplify_1',(#472));
#469=APPLICATION_PROTOCOL_DEFINITION('international standard',
'automotive_design',2009,#470);
#470=APPLICATION_CONTEXT(
'Core Data for Automotive Mechanical Design Process');
#471=PRODUCT_CONTEXT('part definition',#470,'mechanical');
#472=PRODUCT('T38SM Broach Assy_Simplify_1',
'T38SM Broach Assy_Simplify_1',$,(#471));
#473=PRESENTATION_STYLE_ASSIGNMENT((#476));
#474=PRESENTATION_STYLE_ASSIGNMENT((#477));
#475=PRESENTATION_STYLE_ASSIGNMENT((#478));
#476=SURFACE_STYLE_USAGE(.BOTH.,#485);
#477=SURFACE_STYLE_USAGE(.BOTH.,#486);
#478=SURFACE_STYLE_USAGE(.BOTH.,#487);
#479=SURFACE_STYLE_RENDERING_WITH_PROPERTIES($,#497,(#482));
#480=SURFACE_STYLE_RENDERING_WITH_PROPERTIES($,#498,(#483));
#481=SURFACE_STYLE_RENDERING_WITH_PROPERTIES($,#499,(#484));
#482=SURFACE_STYLE_TRANSPARENT(0.);
#483=SURFACE_STYLE_TRANSPARENT(0.);
#484=SURFACE_STYLE_TRANSPARENT(0.);
#485=SURFACE_SIDE_STYLE('',(#488,#479));
#486=SURFACE_SIDE_STYLE('',(#489,#480));
#487=SURFACE_SIDE_STYLE('',(#490,#481));
#488=SURFACE_STYLE_FILL_AREA(#491);
#489=SURFACE_STYLE_FILL_AREA(#492);
#490=SURFACE_STYLE_FILL_AREA(#493);
#491=FILL_AREA_STYLE('',(#494));
#492=FILL_AREA_STYLE('',(#495));
#493=FILL_AREA_STYLE('',(#496));
#494=FILL_AREA_STYLE_COLOUR('',#497);
#495=FILL_AREA_STYLE_COLOUR('',#498);
#496=FILL_AREA_STYLE_COLOUR('',#499);
#497=COLOUR_RGB('',0.749019607843137,0.749019607843137,0.749019607843137);
#498=COLOUR_RGB('',0.270588235294118,0.270588235294118,0.270588235294118);
#499=COLOUR_RGB('',0.886274509803922,0.862745098039216,0.164705882352941);
ENDSEC;
END-ISO-10303-21;
