ISO-10303-21;
HEADER;
/* Generated by software containing ST-Developer
 * from STEP Tools, Inc. (www.steptools.com) 
 */

FILE_DESCRIPTION(
/* description */ (''),
/* implementation_level */ '2;1');

FILE_NAME(
/* name */ 
'C:\\Users\\shane\\Desktop\\CNC Broach Tools\\Tool Library\\Cam stp Mo
dels\\T38L\\T38L.stp',
/* time_stamp */ '2021-12-14T15:54:28-07:00',
/* author */ ('shane'),
/* organization */ (''),
/* preprocessor_version */ 'ST-DEVELOPER v18.1',
/* originating_system */ 'Autodesk Inventor 2022',
/* authorisation */ '');

FILE_SCHEMA (('AUTOMOTIVE_DESIGN { 1 0 10303 214 3 1 1 }'));
ENDSEC;

DATA;
#10=MECHANICAL_DESIGN_GEOMETRIC_PRESENTATION_REPRESENTATION('',(#13),#381);
#11=SHAPE_REPRESENTATION_RELATIONSHIP('SRR','None',#391,#12);
#12=ADVANCED_BREP_SHAPE_REPRESENTATION('',(#14),#380);
#13=STYLED_ITEM('',(#400),#14);
#14=MANIFOLD_SOLID_BREP('Solid1',#197);
#15=TOROIDAL_SURFACE('',#227,0.329,0.015);
#16=TOROIDAL_SURFACE('',#229,0.344999999999999,0.0300000000000001);
#17=TOROIDAL_SURFACE('',#237,0.404,0.06);
#18=CYLINDRICAL_SURFACE('',#222,0.344);
#19=CYLINDRICAL_SURFACE('',#234,0.374999999999999);
#20=CIRCLE('',#220,0.344);
#21=CIRCLE('',#223,0.344);
#22=CIRCLE('',#224,0.344);
#23=CIRCLE('',#225,0.344);
#24=CIRCLE('',#226,0.344);
#25=CIRCLE('',#228,0.329);
#26=CIRCLE('',#230,0.374999999999999);
#27=CIRCLE('',#231,0.374999999999999);
#28=CIRCLE('',#232,0.0300000000000001);
#29=CIRCLE('',#233,0.344999999999999);
#30=CIRCLE('',#235,0.375);
#31=CIRCLE('',#236,0.375);
#32=CIRCLE('',#238,0.06);
#33=FACE_OUTER_BOUND('',#44,.T.);
#34=FACE_OUTER_BOUND('',#45,.T.);
#35=FACE_OUTER_BOUND('',#46,.T.);
#36=FACE_OUTER_BOUND('',#47,.T.);
#37=FACE_OUTER_BOUND('',#48,.T.);
#38=FACE_OUTER_BOUND('',#49,.T.);
#39=FACE_OUTER_BOUND('',#50,.T.);
#40=FACE_OUTER_BOUND('',#51,.T.);
#41=FACE_OUTER_BOUND('',#52,.T.);
#42=FACE_OUTER_BOUND('',#53,.T.);
#43=FACE_OUTER_BOUND('',#54,.T.);
#44=EDGE_LOOP('',(#126,#127,#128,#129,#130));
#45=EDGE_LOOP('',(#131,#132,#133,#134));
#46=EDGE_LOOP('',(#135,#136,#137,#138));
#47=EDGE_LOOP('',(#139,#140,#141,#142,#143));
#48=EDGE_LOOP('',(#144,#145,#146,#147,#148,#149,#150,#151,#152));
#49=EDGE_LOOP('',(#153,#154,#155,#156,#157));
#50=EDGE_LOOP('',(#158,#159,#160,#161,#162));
#51=EDGE_LOOP('',(#163,#164,#165,#166,#167,#168));
#52=EDGE_LOOP('',(#169,#170,#171,#172,#173,#174));
#53=EDGE_LOOP('',(#175,#176,#177,#178));
#54=EDGE_LOOP('',(#179));
#55=LINE('',#318,#67);
#56=LINE('',#320,#68);
#57=LINE('',#322,#69);
#58=LINE('',#323,#70);
#59=LINE('',#326,#71);
#60=LINE('',#328,#72);
#61=LINE('',#329,#73);
#62=LINE('',#333,#74);
#63=LINE('',#347,#75);
#64=LINE('',#348,#76);
#65=LINE('',#353,#77);
#66=LINE('',#372,#78);
#67=VECTOR('',#245,0.393700787401575);
#68=VECTOR('',#246,0.393700787401575);
#69=VECTOR('',#247,0.393700787401575);
#70=VECTOR('',#248,0.393700787401575);
#71=VECTOR('',#251,0.393700787401575);
#72=VECTOR('',#252,0.393700787401575);
#73=VECTOR('',#253,0.393700787401575);
#74=VECTOR('',#258,0.393700787401575);
#75=VECTOR('',#261,0.393700787401575);
#76=VECTOR('',#262,0.393700787401575);
#77=VECTOR('',#267,0.344);
#78=VECTOR('',#292,0.374999999999999);
#79=B_SPLINE_CURVE_WITH_KNOTS('',3,(#307,#308,#309,#310,#311,#312,#313,
#314,#315,#316),.UNSPECIFIED.,.F.,.F.,(4,2,2,2,4),(0.,0.0132787191430443,
0.0278618155887352,0.0442514434192431,0.0624782662576459),.UNSPECIFIED.);
#80=B_SPLINE_CURVE_WITH_KNOTS('',3,(#337,#338,#339,#340,#341,#342,#343,
#344,#345,#346),.UNSPECIFIED.,.F.,.F.,(4,2,2,2,4),(-0.062478266257646,-0.044251443419243,
-0.0278618155887351,-0.0132787191430443,0.),.UNSPECIFIED.);
#81=VERTEX_POINT('',#305);
#82=VERTEX_POINT('',#306);
#83=VERTEX_POINT('',#317);
#84=VERTEX_POINT('',#319);
#85=VERTEX_POINT('',#321);
#86=VERTEX_POINT('',#325);
#87=VERTEX_POINT('',#327);
#88=VERTEX_POINT('',#331);
#89=VERTEX_POINT('',#335);
#90=VERTEX_POINT('',#336);
#91=VERTEX_POINT('',#350);
#92=VERTEX_POINT('',#352);
#93=VERTEX_POINT('',#354);
#94=VERTEX_POINT('',#361);
#95=VERTEX_POINT('',#362);
#96=VERTEX_POINT('',#365);
#97=VERTEX_POINT('',#369);
#98=VERTEX_POINT('',#370);
#99=EDGE_CURVE('',#81,#82,#79,.T.);
#100=EDGE_CURVE('',#83,#81,#55,.T.);
#101=EDGE_CURVE('',#83,#84,#56,.T.);
#102=EDGE_CURVE('',#84,#85,#57,.T.);
#103=EDGE_CURVE('',#85,#82,#58,.T.);
#104=EDGE_CURVE('',#86,#84,#59,.T.);
#105=EDGE_CURVE('',#87,#86,#60,.T.);
#106=EDGE_CURVE('',#85,#87,#61,.T.);
#107=EDGE_CURVE('',#88,#83,#20,.T.);
#108=EDGE_CURVE('',#86,#88,#62,.T.);
#109=EDGE_CURVE('',#89,#90,#80,.T.);
#110=EDGE_CURVE('',#89,#87,#63,.T.);
#111=EDGE_CURVE('',#90,#88,#64,.T.);
#112=EDGE_CURVE('',#91,#81,#21,.T.);
#113=EDGE_CURVE('',#91,#92,#65,.T.);
#114=EDGE_CURVE('',#92,#93,#22,.T.);
#115=EDGE_CURVE('',#93,#92,#23,.T.);
#116=EDGE_CURVE('',#90,#91,#24,.T.);
#117=EDGE_CURVE('',#89,#82,#25,.T.);
#118=EDGE_CURVE('',#94,#95,#26,.T.);
#119=EDGE_CURVE('',#95,#94,#27,.T.);
#120=EDGE_CURVE('',#95,#96,#28,.T.);
#121=EDGE_CURVE('',#96,#96,#29,.T.);
#122=EDGE_CURVE('',#97,#98,#30,.T.);
#123=EDGE_CURVE('',#97,#94,#66,.T.);
#124=EDGE_CURVE('',#98,#97,#31,.T.);
#125=EDGE_CURVE('',#98,#93,#32,.T.);
#126=ORIENTED_EDGE('',*,*,#99,.F.);
#127=ORIENTED_EDGE('',*,*,#100,.F.);
#128=ORIENTED_EDGE('',*,*,#101,.T.);
#129=ORIENTED_EDGE('',*,*,#102,.T.);
#130=ORIENTED_EDGE('',*,*,#103,.T.);
#131=ORIENTED_EDGE('',*,*,#104,.F.);
#132=ORIENTED_EDGE('',*,*,#105,.F.);
#133=ORIENTED_EDGE('',*,*,#106,.F.);
#134=ORIENTED_EDGE('',*,*,#102,.F.);
#135=ORIENTED_EDGE('',*,*,#107,.F.);
#136=ORIENTED_EDGE('',*,*,#108,.F.);
#137=ORIENTED_EDGE('',*,*,#104,.T.);
#138=ORIENTED_EDGE('',*,*,#101,.F.);
#139=ORIENTED_EDGE('',*,*,#109,.F.);
#140=ORIENTED_EDGE('',*,*,#110,.T.);
#141=ORIENTED_EDGE('',*,*,#105,.T.);
#142=ORIENTED_EDGE('',*,*,#108,.T.);
#143=ORIENTED_EDGE('',*,*,#111,.F.);
#144=ORIENTED_EDGE('',*,*,#111,.T.);
#145=ORIENTED_EDGE('',*,*,#107,.T.);
#146=ORIENTED_EDGE('',*,*,#100,.T.);
#147=ORIENTED_EDGE('',*,*,#112,.F.);
#148=ORIENTED_EDGE('',*,*,#113,.T.);
#149=ORIENTED_EDGE('',*,*,#114,.T.);
#150=ORIENTED_EDGE('',*,*,#115,.T.);
#151=ORIENTED_EDGE('',*,*,#113,.F.);
#152=ORIENTED_EDGE('',*,*,#116,.F.);
#153=ORIENTED_EDGE('',*,*,#109,.T.);
#154=ORIENTED_EDGE('',*,*,#116,.T.);
#155=ORIENTED_EDGE('',*,*,#112,.T.);
#156=ORIENTED_EDGE('',*,*,#99,.T.);
#157=ORIENTED_EDGE('',*,*,#117,.F.);
#158=ORIENTED_EDGE('',*,*,#118,.F.);
#159=ORIENTED_EDGE('',*,*,#119,.F.);
#160=ORIENTED_EDGE('',*,*,#120,.T.);
#161=ORIENTED_EDGE('',*,*,#121,.T.);
#162=ORIENTED_EDGE('',*,*,#120,.F.);
#163=ORIENTED_EDGE('',*,*,#122,.F.);
#164=ORIENTED_EDGE('',*,*,#123,.T.);
#165=ORIENTED_EDGE('',*,*,#118,.T.);
#166=ORIENTED_EDGE('',*,*,#119,.T.);
#167=ORIENTED_EDGE('',*,*,#123,.F.);
#168=ORIENTED_EDGE('',*,*,#124,.F.);
#169=ORIENTED_EDGE('',*,*,#122,.T.);
#170=ORIENTED_EDGE('',*,*,#125,.T.);
#171=ORIENTED_EDGE('',*,*,#114,.F.);
#172=ORIENTED_EDGE('',*,*,#115,.F.);
#173=ORIENTED_EDGE('',*,*,#125,.F.);
#174=ORIENTED_EDGE('',*,*,#124,.T.);
#175=ORIENTED_EDGE('',*,*,#117,.T.);
#176=ORIENTED_EDGE('',*,*,#103,.F.);
#177=ORIENTED_EDGE('',*,*,#106,.T.);
#178=ORIENTED_EDGE('',*,*,#110,.F.);
#179=ORIENTED_EDGE('',*,*,#121,.F.);
#180=PLANE('',#217);
#181=PLANE('',#218);
#182=PLANE('',#219);
#183=PLANE('',#221);
#184=PLANE('',#239);
#185=PLANE('',#240);
#186=ADVANCED_FACE('',(#33),#180,.T.);
#187=ADVANCED_FACE('',(#34),#181,.T.);
#188=ADVANCED_FACE('',(#35),#182,.T.);
#189=ADVANCED_FACE('',(#36),#183,.T.);
#190=ADVANCED_FACE('',(#37),#18,.T.);
#191=ADVANCED_FACE('',(#38),#15,.T.);
#192=ADVANCED_FACE('',(#39),#16,.T.);
#193=ADVANCED_FACE('',(#40),#19,.T.);
#194=ADVANCED_FACE('',(#41),#17,.F.);
#195=ADVANCED_FACE('',(#42),#184,.T.);
#196=ADVANCED_FACE('',(#43),#185,.T.);
#197=CLOSED_SHELL('',(#186,#187,#188,#189,#190,#191,#192,#193,#194,#195,
#196));
#198=DERIVED_UNIT_ELEMENT(#200,1.);
#199=DERIVED_UNIT_ELEMENT(#385,-3.);
#200=(
MASS_UNIT()
NAMED_UNIT(*)
SI_UNIT($,.GRAM.)
);
#201=DERIVED_UNIT((#198,#199));
#202=MEASURE_REPRESENTATION_ITEM('density measure',
POSITIVE_RATIO_MEASURE(1.),#201);
#203=PROPERTY_DEFINITION_REPRESENTATION(#208,#205);
#204=PROPERTY_DEFINITION_REPRESENTATION(#209,#206);
#205=REPRESENTATION('material name',(#207),#380);
#206=REPRESENTATION('density',(#202),#380);
#207=DESCRIPTIVE_REPRESENTATION_ITEM('Generic','Generic');
#208=PROPERTY_DEFINITION('material property','material name',#393);
#209=PROPERTY_DEFINITION('material property','density of part',#393);
#210=DATE_TIME_ROLE('creation_date');
#211=APPLIED_DATE_AND_TIME_ASSIGNMENT(#212,#210,(#393));
#212=DATE_AND_TIME(#213,#214);
#213=CALENDAR_DATE(2021,14,12);
#214=LOCAL_TIME(0,0,0.,#215);
#215=COORDINATED_UNIVERSAL_TIME_OFFSET(0,0,.BEHIND.);
#216=AXIS2_PLACEMENT_3D('placement',#303,#241,#242);
#217=AXIS2_PLACEMENT_3D('',#304,#243,#244);
#218=AXIS2_PLACEMENT_3D('',#324,#249,#250);
#219=AXIS2_PLACEMENT_3D('',#330,#254,#255);
#220=AXIS2_PLACEMENT_3D('',#332,#256,#257);
#221=AXIS2_PLACEMENT_3D('',#334,#259,#260);
#222=AXIS2_PLACEMENT_3D('',#349,#263,#264);
#223=AXIS2_PLACEMENT_3D('',#351,#265,#266);
#224=AXIS2_PLACEMENT_3D('',#355,#268,#269);
#225=AXIS2_PLACEMENT_3D('',#356,#270,#271);
#226=AXIS2_PLACEMENT_3D('',#357,#272,#273);
#227=AXIS2_PLACEMENT_3D('',#358,#274,#275);
#228=AXIS2_PLACEMENT_3D('',#359,#276,#277);
#229=AXIS2_PLACEMENT_3D('',#360,#278,#279);
#230=AXIS2_PLACEMENT_3D('',#363,#280,#281);
#231=AXIS2_PLACEMENT_3D('',#364,#282,#283);
#232=AXIS2_PLACEMENT_3D('',#366,#284,#285);
#233=AXIS2_PLACEMENT_3D('',#367,#286,#287);
#234=AXIS2_PLACEMENT_3D('',#368,#288,#289);
#235=AXIS2_PLACEMENT_3D('',#371,#290,#291);
#236=AXIS2_PLACEMENT_3D('',#373,#293,#294);
#237=AXIS2_PLACEMENT_3D('',#374,#295,#296);
#238=AXIS2_PLACEMENT_3D('',#375,#297,#298);
#239=AXIS2_PLACEMENT_3D('',#376,#299,#300);
#240=AXIS2_PLACEMENT_3D('',#377,#301,#302);
#241=DIRECTION('axis',(0.,0.,1.));
#242=DIRECTION('refdir',(1.,0.,0.));
#243=DIRECTION('center_axis',(0.,-1.,0.));
#244=DIRECTION('ref_axis',(0.,0.,-1.));
#245=DIRECTION('',(1.,1.22464679914735E-16,0.));
#246=DIRECTION('',(-1.54998467725632E-16,0.,-1.));
#247=DIRECTION('',(0.99026806874157,0.,-0.139173100960066));
#248=DIRECTION('',(0.,0.,1.));
#249=DIRECTION('center_axis',(-0.139173100960066,0.,-0.99026806874157));
#250=DIRECTION('ref_axis',(-0.99026806874157,0.,0.139173100960066));
#251=DIRECTION('',(0.,-1.,0.));
#252=DIRECTION('',(-0.99026806874157,0.,0.139173100960066));
#253=DIRECTION('',(0.,1.,0.));
#254=DIRECTION('center_axis',(-1.,0.,1.54998467725632E-16));
#255=DIRECTION('ref_axis',(1.54998467725632E-16,0.,1.));
#256=DIRECTION('center_axis',(-1.,0.,1.54998467725632E-16));
#257=DIRECTION('ref_axis',(0.,1.,0.));
#258=DIRECTION('',(1.54998467725632E-16,0.,1.));
#259=DIRECTION('center_axis',(0.,1.,0.));
#260=DIRECTION('ref_axis',(0.,0.,1.));
#261=DIRECTION('',(0.,0.,-1.));
#262=DIRECTION('',(-1.,-1.22464679914735E-16,0.));
#263=DIRECTION('center_axis',(1.,1.22464679914735E-16,0.));
#264=DIRECTION('ref_axis',(0.,1.,0.));
#265=DIRECTION('center_axis',(1.,1.22464679914735E-16,0.));
#266=DIRECTION('ref_axis',(0.,0.,-1.));
#267=DIRECTION('',(-1.,-1.22464679914735E-16,0.));
#268=DIRECTION('center_axis',(1.,1.22464679914735E-16,0.));
#269=DIRECTION('ref_axis',(0.,0.,-1.));
#270=DIRECTION('center_axis',(1.,1.22464679914735E-16,0.));
#271=DIRECTION('ref_axis',(0.,0.,-1.));
#272=DIRECTION('center_axis',(1.,1.22464679914735E-16,0.));
#273=DIRECTION('ref_axis',(0.,0.,-1.));
#274=DIRECTION('center_axis',(1.,1.22464679914735E-16,0.));
#275=DIRECTION('ref_axis',(0.,1.22464679914735E-16,1.));
#276=DIRECTION('center_axis',(1.,1.22464679914735E-16,0.));
#277=DIRECTION('ref_axis',(0.,0.,-1.));
#278=DIRECTION('center_axis',(1.,1.22464679914735E-16,0.));
#279=DIRECTION('ref_axis',(0.,0.,-1.));
#280=DIRECTION('center_axis',(1.,1.22464679914735E-16,0.));
#281=DIRECTION('ref_axis',(0.,0.,-1.));
#282=DIRECTION('center_axis',(1.,1.22464679914735E-16,0.));
#283=DIRECTION('ref_axis',(0.,0.,-1.));
#284=DIRECTION('center_axis',(1.22464679914735E-16,-1.,-1.22464679914735E-16));
#285=DIRECTION('ref_axis',(0.,-1.22464679914735E-16,1.));
#286=DIRECTION('center_axis',(1.,1.22464679914735E-16,0.));
#287=DIRECTION('ref_axis',(0.,0.,-1.));
#288=DIRECTION('center_axis',(1.,1.22464679914735E-16,0.));
#289=DIRECTION('ref_axis',(0.,1.,0.));
#290=DIRECTION('center_axis',(1.,1.22464679914735E-16,0.));
#291=DIRECTION('ref_axis',(0.,0.,-1.));
#292=DIRECTION('',(-1.,-1.22464679914735E-16,0.));
#293=DIRECTION('center_axis',(1.,1.22464679914735E-16,0.));
#294=DIRECTION('ref_axis',(0.,0.,-1.));
#295=DIRECTION('center_axis',(1.,1.22464679914735E-16,0.));
#296=DIRECTION('ref_axis',(0.,0.,-1.));
#297=DIRECTION('center_axis',(1.22464679914735E-16,-1.,-1.22464679914735E-16));
#298=DIRECTION('ref_axis',(0.,-1.22464679914735E-16,1.));
#299=DIRECTION('center_axis',(1.,1.22464679914735E-16,0.));
#300=DIRECTION('ref_axis',(0.,0.,-1.));
#301=DIRECTION('center_axis',(-1.,-1.22464679914735E-16,0.));
#302=DIRECTION('ref_axis',(0.,0.,1.));
#303=CARTESIAN_POINT('',(0.,0.,0.));
#304=CARTESIAN_POINT('Origin',(-0.375,-0.18875,-0.229297186986603));
#305=CARTESIAN_POINT('',(-0.015,-0.18875,-0.287592485124351));
#306=CARTESIAN_POINT('',(0.,-0.18875,-0.26947066166839));
#307=CARTESIAN_POINT('Ctrl Pts',(-0.015,-0.18875,-0.287592485124351));
#308=CARTESIAN_POINT('Ctrl Pts',(-0.013257385939233,-0.18875,-0.287592485124351));
#309=CARTESIAN_POINT('Ctrl Pts',(-0.0112177940305983,-0.18875,-0.287131054449689));
#310=CARTESIAN_POINT('Ctrl Pts',(-0.00789447364943547,-0.18875,-0.285606309135093));
#311=CARTESIAN_POINT('Ctrl Pts',(-0.00607003267207742,-0.18875,-0.284211475855935));
#312=CARTESIAN_POINT('Ctrl Pts',(-0.00335809972563756,-0.18875,-0.281183787514393));
#313=CARTESIAN_POINT('Ctrl Pts',(-0.00206242820665979,-0.18875,-0.278951519123504));
#314=CARTESIAN_POINT('Ctrl Pts',(-0.000483056433387109,-0.18875,-0.274692060022333));
#315=CARTESIAN_POINT('Ctrl Pts',(1.91945693193517E-17,-0.18875,-0.271862633169493));
#316=CARTESIAN_POINT('Ctrl Pts',(1.36592399683213E-17,-0.18875,-0.26947066166839));
#317=CARTESIAN_POINT('',(-0.75,-0.18875,-0.287592485124351));
#318=CARTESIAN_POINT('',(-1.98123690802666,-0.18875,-0.287592485124351));
#319=CARTESIAN_POINT('',(-0.75,-0.18875,-0.458594373973206));
#320=CARTESIAN_POINT('',(-0.75,-0.18875,-0.458594373973206));
#321=CARTESIAN_POINT('',(0.,-0.18875,-0.564));
#322=CARTESIAN_POINT('',(0.,-0.18875,-0.564));
#323=CARTESIAN_POINT('',(0.,-0.18875,0.));
#324=CARTESIAN_POINT('Origin',(0.,0.,-0.564));
#325=CARTESIAN_POINT('',(-0.75,0.18875,-0.458594373973206));
#326=CARTESIAN_POINT('',(-0.75,0.,-0.458594373973206));
#327=CARTESIAN_POINT('',(0.,0.18875,-0.564));
#328=CARTESIAN_POINT('',(0.,0.18875,-0.564));
#329=CARTESIAN_POINT('',(0.,0.,-0.564));
#330=CARTESIAN_POINT('Origin',(-0.75,0.,-0.458594373973206));
#331=CARTESIAN_POINT('',(-0.75,0.18875,-0.287592485124351));
#332=CARTESIAN_POINT('Origin',(-0.75,-9.18485099360515E-17,0.));
#333=CARTESIAN_POINT('',(-0.75,0.18875,-0.458594373973206));
#334=CARTESIAN_POINT('Origin',(-0.375,0.18875,-0.229297186986603));
#335=CARTESIAN_POINT('',(0.,0.18875,-0.26947066166839));
#336=CARTESIAN_POINT('',(-0.015,0.18875,-0.287592485124351));
#337=CARTESIAN_POINT('Ctrl Pts',(-3.00503279303069E-17,0.18875,-0.26947066166839));
#338=CARTESIAN_POINT('Ctrl Pts',(-3.0170292347325E-17,0.18875,-0.271862633169493));
#339=CARTESIAN_POINT('Ctrl Pts',(-0.00048305643338717,0.18875,-0.274692060022333));
#340=CARTESIAN_POINT('Ctrl Pts',(-0.00206242820665986,0.18875,-0.278951519123504));
#341=CARTESIAN_POINT('Ctrl Pts',(-0.00335809972563762,0.18875,-0.281183787514393));
#342=CARTESIAN_POINT('Ctrl Pts',(-0.00607003267207749,0.18875,-0.284211475855935));
#343=CARTESIAN_POINT('Ctrl Pts',(-0.00789447364943554,0.18875,-0.285606309135093));
#344=CARTESIAN_POINT('Ctrl Pts',(-0.0112177940305984,0.18875,-0.287131054449689));
#345=CARTESIAN_POINT('Ctrl Pts',(-0.0132573859392331,0.18875,-0.287592485124351));
#346=CARTESIAN_POINT('Ctrl Pts',(-0.015,0.18875,-0.287592485124351));
#347=CARTESIAN_POINT('',(0.,0.18875,0.));
#348=CARTESIAN_POINT('',(-1.98123690802666,0.18875,-0.287592485124351));
#349=CARTESIAN_POINT('Origin',(-1.98123690802666,-2.42631543776745E-16,
0.));
#350=CARTESIAN_POINT('',(-0.015,-0.344,-4.21278498906689E-17));
#351=CARTESIAN_POINT('Origin',(-0.015,-1.83697019872099E-18,0.));
#352=CARTESIAN_POINT('',(-3.94747381605332,-0.344,-4.21278498906689E-17));
#353=CARTESIAN_POINT('',(-1.98123690802666,-0.344,-4.21278498906689E-17));
#354=CARTESIAN_POINT('',(-3.94747381605332,-5.25553967245438E-16,0.344));
#355=CARTESIAN_POINT('Origin',(-3.94747381605332,-4.83426117354769E-16,
0.));
#356=CARTESIAN_POINT('Origin',(-3.94747381605332,-4.83426117354769E-16,
0.));
#357=CARTESIAN_POINT('Origin',(-0.015,-1.83697019872099E-18,0.));
#358=CARTESIAN_POINT('Origin',(-0.015,-1.83697019872099E-18,0.));
#359=CARTESIAN_POINT('Origin',(0.,0.,0.));
#360=CARTESIAN_POINT('Origin',(-5.97,-7.3111413909097E-16,0.));
#361=CARTESIAN_POINT('',(-5.97,-0.375,-4.59242549680257E-17));
#362=CARTESIAN_POINT('',(-5.97,-7.77038394058996E-16,0.374999999999999));
#363=CARTESIAN_POINT('Origin',(-5.97,-7.3111413909097E-16,0.));
#364=CARTESIAN_POINT('Origin',(-5.97,-7.3111413909097E-16,0.));
#365=CARTESIAN_POINT('',(-6.,-7.77038394058996E-16,0.344999999999999));
#366=CARTESIAN_POINT('Origin',(-5.97,-7.73364453661554E-16,0.344999999999999));
#367=CARTESIAN_POINT('Origin',(-6.,-7.34788079488412E-16,0.));
#368=CARTESIAN_POINT('Origin',(-4.985,-6.10486429374956E-16,0.));
#369=CARTESIAN_POINT('',(-4.,-0.375,-4.59242549680257E-17));
#370=CARTESIAN_POINT('',(-4.,-5.35782974626967E-16,0.375));
#371=CARTESIAN_POINT('Origin',(-4.,-4.89858719658941E-16,0.));
#372=CARTESIAN_POINT('',(-4.985,-0.375,-4.59242549680257E-17));
#373=CARTESIAN_POINT('Origin',(-4.,-4.89858719658941E-16,0.));
#374=CARTESIAN_POINT('Origin',(-3.94747381605332,-4.83426117354769E-16,
0.));
#375=CARTESIAN_POINT('Origin',(-3.94747381605332,-5.32901848040322E-16,
0.404));
#376=CARTESIAN_POINT('Origin',(0.,0.,0.));
#377=CARTESIAN_POINT('Origin',(-6.,0.344999999999998,0.));
#378=UNCERTAINTY_MEASURE_WITH_UNIT(LENGTH_MEASURE(0.000393700787401575),
#383,'DISTANCE_ACCURACY_VALUE',
'Maximum model space distance between geometric entities at asserted c
onnectivities');
#379=UNCERTAINTY_MEASURE_WITH_UNIT(LENGTH_MEASURE(0.000393700787401575),
#383,'DISTANCE_ACCURACY_VALUE',
'Maximum model space distance between geometric entities at asserted c
onnectivities');
#380=(
GEOMETRIC_REPRESENTATION_CONTEXT(3)
GLOBAL_UNCERTAINTY_ASSIGNED_CONTEXT((#378))
GLOBAL_UNIT_ASSIGNED_CONTEXT((#383,#387,#388))
REPRESENTATION_CONTEXT('','3D')
);
#381=(
GEOMETRIC_REPRESENTATION_CONTEXT(3)
GLOBAL_UNCERTAINTY_ASSIGNED_CONTEXT((#379))
GLOBAL_UNIT_ASSIGNED_CONTEXT((#383,#387,#388))
REPRESENTATION_CONTEXT('','3D')
);
#382=DIMENSIONAL_EXPONENTS(1.,0.,0.,0.,0.,0.,0.);
#383=(
CONVERSION_BASED_UNIT('inch',#386)
LENGTH_UNIT()
NAMED_UNIT(#382)
);
#384=(
LENGTH_UNIT()
NAMED_UNIT(*)
SI_UNIT(.MILLI.,.METRE.)
);
#385=(
LENGTH_UNIT()
NAMED_UNIT(*)
SI_UNIT(.CENTI.,.METRE.)
);
#386=LENGTH_MEASURE_WITH_UNIT(LENGTH_MEASURE(25.4),#384);
#387=(
NAMED_UNIT(*)
PLANE_ANGLE_UNIT()
SI_UNIT($,.RADIAN.)
);
#388=(
NAMED_UNIT(*)
SI_UNIT($,.STERADIAN.)
SOLID_ANGLE_UNIT()
);
#389=SHAPE_DEFINITION_REPRESENTATION(#390,#391);
#390=PRODUCT_DEFINITION_SHAPE('',$,#393);
#391=SHAPE_REPRESENTATION('',(#216),#380);
#392=PRODUCT_DEFINITION_CONTEXT('part definition',#397,'design');
#393=PRODUCT_DEFINITION('T38L','T38L',#394,#392);
#394=PRODUCT_DEFINITION_FORMATION('',$,#399);
#395=PRODUCT_RELATED_PRODUCT_CATEGORY('T38L','T38L',(#399));
#396=APPLICATION_PROTOCOL_DEFINITION('international standard',
'automotive_design',2009,#397);
#397=APPLICATION_CONTEXT(
'Core Data for Automotive Mechanical Design Process');
#398=PRODUCT_CONTEXT('part definition',#397,'mechanical');
#399=PRODUCT('T38L','T38L',$,(#398));
#400=PRESENTATION_STYLE_ASSIGNMENT((#401));
#401=SURFACE_STYLE_USAGE(.BOTH.,#404);
#402=SURFACE_STYLE_RENDERING_WITH_PROPERTIES($,#408,(#403));
#403=SURFACE_STYLE_TRANSPARENT(0.);
#404=SURFACE_SIDE_STYLE('',(#405,#402));
#405=SURFACE_STYLE_FILL_AREA(#406);
#406=FILL_AREA_STYLE('',(#407));
#407=FILL_AREA_STYLE_COLOUR('',#408);
#408=COLOUR_RGB('',0.749019607843137,0.749019607843137,0.749019607843137);
ENDSEC;
END-ISO-10303-21;
